>
 >
Take It Easy 2

Take It Easy 2 Bass Tabs

Eagles - Take It Easy 2 chords, tabs, tablatures, lyrics

Guitar lessons | Add/correct | Request | Top 50 tabs Artists:  A B C D E F G H I J K L M N O P Q R S T U V W X Y Z 0-9

Take It Easy 2 Bass Tabs – Eagles

CD, Sheet music, Poster

Do you like Take It Easy 2? Share with your friends now
Bass TabsBass Tabs v2ChordsChords v2Chords v3Chords v4Chords v5Drum TabsDrum Tabs v2TabsTabs v2Tabs v3Tabs v4Tabs v5Ukulele

Tuning: EADG

Intro 00:03
|-------12-12-12-------------------------------12----------------|-
|-----------------------5--5/5---5--5/5---5--5/---0--5--5/5------|-
|----------------------------------------------------------------|-
|----------------------------------------------------------------|-

Verse 1 00:17
|-------------------------------------------------------------------|-
|-5--5/5---5--5/5-----------------------------------5-7-------------|-
|-----------------7/5--5/5--3-3/2-0-------5-7--5/5-7------3--3/2-0--|-
|-----------------------------------3/3-7-------------------------3-|-
Well I'm a runnin' down the road try'n to loosen my load
I've got seven women on my mind
Four that want to own me, two that want to stone me
One says she's a friend of mine


Chorus 1 00:30
|-----------------------------|---------|----------------------------------|
|-----------------------------|-----5---|----------------------------------|
|----7--7/7---7--7/7---33/3--|-3-7---5-|------------------3-3/3--3--7-7/7-|
|-3---------------------------|---------|-3--3/3--0--55/5-----------------|
Take it easy, take it easy Don't let the sound of your own wheels
drive you crazy

|-------------------|-------------------|-------------------|-
|--------------25--|----------------5--|-------------------|-
|-7~3/33----3---5-|------5-7---3-6--5-|-----5-------------|-
|---------3~--------|--37--------------|-37---5--7/7--5-3-|-
Lighten up while you still can
Don't even try to understand.
Just find a place to make your stand, and take it easy


Bridge 00:58
|--------------|-
|--5--5-5/5---|-
|------------5-|-
|--------------|-


Verse 2 01:02
|------------------------------------------------------------------|-
|-5--5/5---5--5/5-----------------------------------5-7------------|-
|-----------------7/5--5/5--3-3/2-0-------5-7--5/5-7------33/2-0--|-
|-----------------------------------3/3-7------------------------3-|-
Well, I'm a standin' on a corner in Winslow, Arizona
Such a fine sight to see
It's a girl my Lord in a flat-bed Ford
Slowin' down to take a look at me


Chorus 2 01:15
|-----------------------------|---------|----------------------------|-
|-----------------------------|-----5---|----------------------------|-
|----7--7/7---7--7/7---33/3--|-3-7---5-|------------3-3/3--3--7-7/7-|-
|-3---------------------------|---------|-3---55/5------------------|-
Come on, baby, don't say maybe
I gotta know if your sweet love is gonna save me

|-------------------|-------------------|-------------------|-
|--------------25--|----------------5--|-------------------|-
|-7~3/33----3----5-|------5-7---3-6--5-|-----5-------------|-
|---------3~--------|--37--------------|-37---5--7/7--5-3-|-
We may lose and we may win, though we will never be here again
So open up I'm climbin' in, so take it easy


Solo 01:43
|---------------------------------------------------------------|-
|-5--5/5---5--5/5-----------------------------------------------|-
|------------------5--5/5---3--3/2-0-------5-7---5--5/5---33/3-|-
|-----------------------------------3---3-7---------------------|-

|----------------------------------------------------------|-
|------------------------------------------------------5-7-|-
|-----------------7--7/7---7--7/7---5-5/5---55/5---37----|-
|-3--3/3---3--3/3------------------------------------------|-

|-----------------------------------------|-
|-----------------------------------------|-
|------------------3--3/3---7--7/7---7L---|-
|-3--3/3---5--5/5-------------------------|-


Verse 3 02:11
|------------------------------------------------------------------|-
|-5--5/5---5--5/5-----------------------------------5-7------------|-
|-----------------7/5--5/5--3-3/2-0-------5-7--5/5-7------33/2-0--|-
|-----------------------------------3/3-7------------------------3-|-
Well, I'm a runnin' down the road tryin' to loosen my load
Got a world of trouble on my mind
Lookin' for a lover who won't blow my cover,
she's so hard to find


Chorus 3 02:24
|-----------------------------|---------|----------------------------------|
|-----------------------------|-----5---|----------------------------------|
|----7--7/7---7--7/7---33/3--|-3-7---5-|------------------3-3/3--3--7-7/7-|
|-3---------------------------|---------|-3--3/3--0--55/5-----------------|
Take it easy, take it easy Don't let the sound of your own wheels drive you crazy

|-----------------------------|---------|----------------------------|-
|-----------------------------|-----5---|----------------------------|-
|----7--7/7---7--7/7---33/3--|-3-7---5-|------------3-3/3--3--7-7/7-|-
|-3---------------------------|---------|-3---55/5------------------|-
Come on baby, don't say maybe I gotta know if your sweet love 
is gonna save me


Outro 02:53
|------------------------------------------------------------------|-
|------------------------------------------------------------------|-
|-3--3----3--3----2-0----2-0----3--3----3--3----2-0----2-0----3/7--|-
|-----/3------/3-----/3-----/3------/3------/3-----/3-----/3-------|-





======================================================================
==                     GENERAL TABLATURE EXPLANATION                ==
======================================================================

----------                ----------                ----t---
----5h8--- Hammer on      ----g8---- Ghost          ----6--- Tap
----------                ---------- Note           --------
----5p8--- Pull off       ----------                --------

----------                ----------                -----p
-----5/8-- Slide Up       -----x---- Dead           -----7-- Pop
----------                ---------- Note           --s---
----5\8--- Slide Down     ----------                --5----- Slap

----------                ||------|| Repeat         -------- 
----5~~~-- Vibrato        ||*----*||                ---5b--- Bend 
----------                ||*----*||                -------- up or 
----------                ||------||                -------- down

----------                ----------                --------
-4:------- Time           ----------                --------
-4:------- Signature      ----------                --4br--- Bend /
----------                ----------                -------- release





Comments


Popular Eagles tabs & chords
Frail Grasp On The Big Picture Chords
Hole In The World 1 Chords
Hotel Califorina Chords
Hotel California Easiest Chords
Witchy Women Chords
Earlybird Tabs
Hotel California Live 3 Tabs
Youre Not Alone 1 Tabs
Hotel California Ukulele
You Belong To The City Ukulele


Song lyrics



↑ Back to top | Tablatures and chords are parodies/interpretations of the original songs. You may use it for private study, scholarship, research or language learning purposes only
© 2014 AZChords.com Contact us | Privacy policy | DMCA | Add/correct tabs | Request tabs | Top 50 tabs