» » »

Eagles, Take It Easy Bass tabs (ver.1)

Artists:  A B C D E F G H I J K L M N O P Q R S T U V W X Y Z # 

Take It Easy Bass tabs (ver.1)

Eagles Tabs
 Rating:
4/5 (4 votes)
Take It Easy lessons Tabs too difficult? Try these video lessons and learn fast
                Take It Easy

By Eagles

In the Style of HepCatz

Bass Tablature


*In the key of F

G-----------------|-----------------|-----------------|-----------------|
D-----------------|-----------------|-----------------|-----------------|
A-----------------|-----------------|------1-1-1------|--------3--------|
E--------1--------|-----------------|-----------------|-----------------|



G-----------------|-----------------|-----------------|-----------------|
D-----------------|-----------------|-----------------|-----------------|
A-----------------|-----------------|------1-1-1------|------3-3-3------|
E--------1--------|-----------------|-----------------|-----------------|

Well I'm a runnin' down the road tryin' to loosen my load.

G-----------------|-----------------|-----------------|-----------------|
D-----------------|-----------------|-----------------|-----------------|
A-----------------|-----------------|-----------------|-----------------|
E-1-1-1-1-1-1-1-1-|-1-1-1-1-1-1-1-1-|-1-1-1-1-1-1-1-1-|-1-1-1-1-1-1-1-1-|

I've got seven women on my mind.

G-----------------|-----------------|-----------------|-----------------|
D-----------------|-----------------|-----------------|-----------------|
A-3-3-3-3-3-3-3-3-|-1-1-1-1-1-1-1-1-|-----------------|-----------------|
E-----------------|-----------------|-----------------|-----------------|

Four that wanna own me, two that wanna stone me,

G-----------------|-----------------|-----------------|-----------------|
D-----------------|-----------------|-----------------|-----------------|
A-----------------|-3-3-3-3-3-3-3-3-|-----------------|-----------------|
E-1-1-1-1-1-1-1-1-|-----------------|-----------------|-----------------|

One says she's a friend of mine

G-----------------|-----------------|-----------------|-----------------|
D-----------------|-----------------|-----------------|-----------------|
A-1-1-1-1-1-1-1-1-|-----------------|-----------------|-----------------|
E-----------------|-1-1-1-1-1-1-1-1-|-----------------|-----------------|

Take it easy, take it easy

(Easy, easy)

G-----------------|-----------------|-----------------|-----------------|
D-0-0-0-0-0-0-0-0-|-0-0-0-0-0-0-0-0-|-----------------|-----------------|
A-----------------|-----------------|-1-1-1-1-1-1-1-1-|-----------------|
E-----------------|-----------------|-----------------|-1-1-1-1-1-1-1-1-|

Don't let the sound of your own wheels drive you crazy.

(Ooooooooh,ooh,ooooooooh,ooh,ooooooooh,ooooooooh,ooooooooh)

G-----------------|-----------------|-----------------|-----------------|
D-----------------|-----------------|-----------------|-0-0-0-0-0-0-0-0-|
A-----------------|-----------------|-1-1-1-1-1-1-1-1-|-----------------|
E-3-3-3-3-3-3-3-3-|-3-3-3-3-3-3-3-3-|-----------------|-----------------|

Lighten up while you still can.

G-----------------|-----------------|-----------------|-----------------|
D-----------------|-----------------|-----------------|-----------------|
A-1-1-1-1-1-1-1-1-|-----------------|-----------------|-----------------|
E-----------------|-1-1-1-1-1-1-1-1-|-----------------|-----------------|

Don't even try to understand.

G-----------------|-----------------|-----------------|-----------------|
D-----------------|-----------------|-----------------|-----------------|
A-1-1-1-1-1-1-1-1-|-----------------|-----------------|-----------------|
E-----------------|-1-1-1-1-1-1-1-1-|-----------------|-----------------|

Just find a place to make your stand, and take it easy.

(Take it easy!)

G-----------------|-----------------|-----------------|-----------------|
D-----------------|-----------------|-----------------|-----------------|
A-----------------|-----------------|-1-1-1-1-1-1-1-1-|-----------------|
E-3-3-3-3-3-3-3-3-|-3-3-3-3-3-3-3-3-|-----------------|-1-1-1-1-1-1-1-1-|

Well I'm a standin' on a corner in Winslow, Arizona.

(Well I'm a standin' on a corner in Winslow, Arizona.)

G-----------------|-----------------|-----------------|-----------------|
D-----------------|-----------------|-----------------|-----------------|
A-----------------|-----------------|-----------------|-----------------|
E-1-1-1-1-1-1-1-1-|-1-1-1-1-1-1-1-1-|-1-1-1-1-1-1-1-1-|-1-1-1-1-1-1-1-1-|

Such a fine sight to see

(Such a fine sight to see)

G-----------------|-----------------|-----------------|-----------------|
D-----------------|-----------------|-----------------|-----------------|
A-3-3-3-3-3-3-3-3-|-1-1-1-1-1-1-1-1-|-----------------|-----------------|
E-----------------|-----------------|-----------------|-----------------|

It's a girl, my lord, in a flat-bed Ford,

(It's a girl, my lord, in a flat-bed Ford,)

G-----------------|-----------------|-----------------|-----------------|
D-----------------|-----------------|-----------------|-----------------|
A-----------------|-3-3-3-3-3-3-3-3-|-----------------|-----------------|
E-1-1-1-1-1-1-1-1-|-----------------|-----------------|-----------------|

Slowin' down to take a look at me!

(Slowin' down to take a look at me!)

G-----------------|-----------------|-----------------|-----------------|
D-----------------|-----------------|-----------------|-----------------|
A-1-1-1-1-1-1-1-1-|-----------------|-----------------|-----------------|
E-----------------|-1-1-1-1-1-1-1-1-|-----------------|-----------------|

Come on baby, don't say maybe

(Baby, maybe)

G-----------------|-----------------|-----------------|-----------------|
D-0-0-0-0-0-0-0-0-|-----------------|-----------------|-----------------|
A-----------------|-3-3-3-3-3-3-3-3-|-1-1-1-1-1-1-1-1-|-----------------|
E-----------------|-----------------|-----------------|-1-1-1-1-1-1-1-1-|

I gotta know if your sweet love is gonna save me.

(Ooooooooh,ooh,ooooooooh,ooh,ooooooooh,ooooooooh,ooooooooh)

G-----------------|-----------------|-----------------|-----------------|
D-----------------|-----------------|-----------------|-0-0-0-0-0-0-0-0-|
A-----------------|-----------------|-1-1-1-1-1-1-1-1-|-----------------|
E-3-3-3-3-3-3-3-3-|-3-3-3-3-3-3-3-3-|-----------------|-----------------|

We may lose and we may win, though we will never be here again.

(Though we will never be here again)

G-----------------|-----------------|-----------------|-----------------|
D-----------------|-----------------|-----------------|-----------------|
A-1-1-1-1-1-1-1-1-|-----------------|-1-1-1-1-1-1-1-1-|-----------------|
E-----------------|-1-1-1-1-1-1-1-1-|-----------------|-1-1-1-1-1-1-1-1-|

So open up, I'm climbin' in, so take it easy.

(So open up, I'm climbin' in, so take it easy!)

G-----------------|-----------------|-----------------|-----------------|
D-----------------|-----------------|-----------------|-----------------|
A-----------------|-----------------|-1-1-1-1-1-1-1-1-|-----------------|
E-3-3-3-3-3-3-3-3-|-3-3-3-3-3-3-3-3-|-----------------|-1-1-1-1-1-1-1-1-|



G-----------------|-----------------|-----------------|-----------------|
D-----------------|-----------------|-----------------|-----------------|
A-----------------|-----------------|-3-3-3-3-3-3-3-3-|-1-1-1-1-1-1-1-1-|
E-1-1-1-1-1-1-1-1-|-1-1-1-1-1-1-1-1-|-----------------|-----------------|


G-----------------|-----------------|-----------------|-----------------|
D-----------------|-----------------|-----------------|-----------------|
A-----------------|-3-3-3-3-3-3-3-3-|-1-1-1-1-1-1-1-1-|-----------------|
E-1-1-1-1-1-1-1-1-|-----------------|-----------------|-1-1-1-1-1-1-1-1-|



G-----------------|-----------------|-----------------|-----------------|
D-0-0-0-0-0-0-0-0-|-----------------|-----------------|-----------------|
A-----------------|-3-3-3-3-3-3-3-3-|-1-1-1-1-1-1-1-1-|-----------------|
E-----------------|-----------------|-----------------|-1-1-1-1-1-1-1-1-|



G-----------------|-----------------|-----------------|-----------------|
D-----------------|-----------------|-0-0-0-0-0-0-0-0-|-----------------|
A-----------------|-1-1-1-1-1-1-1-1-|-----------------|-3-3-3-3-3-3-3-3-|
E-3-3-3-3-3-3-3-3-|-----------------|-----------------|-----------------|

Well I'm a runnin' down the road tryin' to loosen my load.

(Ooooooooooooooooh)

G-----------------|-----------------|-----------------|-----------------|
D-----------------|-----------------|-----------------|-----------------|
A-----------------|-----------------|-----------------|-----------------|
E-1-1-1-1-1-1-1-1-|-1-1-1-1-1-1-1-1-|-1-1-1-1-1-1-1-1-|-1-1-1-1-1-1-1-1-|

Got a world of trouble on my mind

(Ooooooooh, ooooooooh, ooooooooh)

G-----------------|-----------------|-----------------|-----------------|
D-----------------|-----------------|-----------------|-----------------|
A-3-3-3-3-3-3-3-3-|-1-1-1-1-1-1-1-1-|-----------------|-----------------|
E-----------------|-----------------|-----------------|-----------------|

Lookin' for a lover who won't blow my cover

(Ooooooooh, ooooooooh)

G-----------------|-----------------|-----------------|-----------------|
D-----------------|-----------------|-----------------|-----------------|
A-----------------|-3-3-3-3-3-3-3-3-|-----------------|-----------------|
E-1-1-1-1-1-1-1-1-|-----------------|-----------------|-----------------|

She's so hard to find.

(Ooooooooh)

G-----------------|-----------------|-----------------|-----------------|
D-----------------|-----------------|-----------------|-----------------|
A-1-1-1-1-1-1-1-1-|-----------------|-----------------|-----------------|
E-----------------|-1-1-1-1-1-1-1-1-|-----------------|-----------------|

Take it easy, take it easy

(Easy, easy)

G-----------------|-----------------|-----------------|-----------------|
D-0-0-0-0-0-0-0-0-|-0-0-0-0-0-0-0-0-|-----------------|-----------------|
A-----------------|-----------------|-1-1-1-1-1-1-1-1-|-----------------|
E-----------------|-----------------|-----------------|-1-1-1-1-1-1-1-1-|

Don't let the sound of your own wheels make you crazy.

(Ooooooooh,ooh,ooooooooh,ooh,ooooooooh,ooooooooh)

G-----------------|-----------------|-----------------|-----------------|
D-----------------|-----------------|-----------------|-0-0-0-0-0-0-0-0-|
A-----------------|-----------------|-1-1-1-1-1-1-1-1-|-----------------|
E-3-3-3-3-3-3-3-3-|-3-3-3-3-3-3-3-3-|-----------------|-----------------|

Come on baby

(Baby)

G-----------------|-----------------|-----------------|-----------------|
D-----------------|-----------------|-----------------|-----------------|
A-1-1-1-1-1-1-1-1-|-----------------|-----------------|-----------------|
E-----------------|-1-1-1-1-1-1-1-1-|-----------------|-----------------|

Don't say maybe

(Maybe)

G-----------------|-----------------|-----------------|-----------------|
D-----------------|-----------------|-----------------|-----------------|
A-1-1-1-1-1-1-1-1-|-----------------|-----------------|-----------------|
E-----------------|-1-1-1-1-1-1-1-1-|-----------------|-----------------|

I gotta know if your sweet love is gonna save me.

(Ooooooooh,ooh,ooooh...save me!)

G-----------------|-----------------|-----------------|-----------------|
D-----------------|-----------------|-----------------|-----------------|
A-----------------|-----------------|-1-1-1-1-1-1-1-1-|-----------------|
E-3-3-3-3-3-3-3-3-|-3-3-3-3-3-3-3-3-|-----------------|-1-1-1-1-1-1-1-1-|

(Ooooh, ooh, ooh, ooooh, ooh, ooh, ooooh, ooh, ooh, ooooh, ooh, ooh)

G-----------------|-----------------|-----------------|-----------------|
D-----------------|-----------------|-----------------|-----------------|
A-1-1-1-1-1-1-1-1-|-1-1-1-1-1-1-1-1-|-----------------|-----------------|
E-----------------|-----------------|-1-1-1-1-1-1-1-1-|-1-1-1-1-1-1-1-1-|

(Ooooh, ooh, ooh, ooooh, ooh, ooh, ooooh, ooh, ooh, ooooh, ooh, ooh)

G-----------------|-----------------|-----------------|-----------------|
D-----------------|-----------------|-----------------|-----------------|
A-1-1-1-1-1-1-1-1-|-1-1-1-1-1-1-1-1-|-----------------|-----------------|
E-----------------|-----------------|-1-1-1-1-1-1-1-1-|-1-1-1-1-1-1-1-1-|

(Ooooh, ooh, ooh, ooooh, ooh, ooh)

G-----------------|-----------------|-----------------|-----------------|
D-----------------|-----------------|-----------------|-----------------|
A-1-1-1-1-1-1-1-1-|-1-1-1-1-1-1-1-1-|-----------------|-----------------|
E-----------------|-----------------|-----------------|-----------------|

Oh, we got it easy.

(Easy)

G-----------------|-----------------|-----------------|-----------------|
D-----------------|-----------------|-----------------|-----------------|
A-----------------|-----------------|-3-3-3-3-3-3-3-3-|-1-1-1-1-1-1-1-1-|
E-1-1-1-1-1-1-1-1-|-1-1-1-1-1-1-1-1-|-----------------|-----------------|

We oughta take it easy.

(Easy)

G-----------------|-----------------|-----------------|-----------------|
D-----------------|-----------------|-----------------|-----------------|
A-----------------|-----------------|-3-3-3-3-3-3-3-3-|-1-1-1-1-1-1-1-1-|
E-1-1-1-1-1-1-1-1-|-1-1-1-1-1-1-1-1-|-----------------|-----------------|



G-----------------|-----------------|-----------------|-----------------|
D-0---------------|-----------------|-----------------|-----------------|
A-----------------|-----------------|-----------------|-----------------|
E-----------------|-----------------|-----------------|-----------------|
            
Submit corrections

comments powered by Disqus
↑ Back to top | Eagles Bass for Take It Easy. Lyrics for acoustic guitar and electric guitar. Tablatures and chords are parodies/interpretations of the original songs. You may use it for private study, scholarship, research or language learning purposes only