» » »

Somebody Tabs (ver.1)

Artists:  A B C D E F G H I J K L M N O P Q R S T U V W X Y Z # 

Somebody Tabs (ver.1)

Eagles
Rating:
0/5 (0 votes)

Hard to play? Try these video lessons and learn fast.
                This will include the two solos (one being an outro) and intro as well, made it by 
ear but it's very accurate, hope it helps!

Intro:
               Bb            Dm         Am        A          Dm
     |-----------------------------------------------------------|
     |------------------------------------1---1---2--------------|
     |----------------------------------2---2---2----------------|  (x2)
     |---3-2-O---------3-2-O-----------------------------3-3-O---|
     |---------1-------------O-----------------------------------|
     |-----------------------------------------------------------|



Verse 1:

         Dm                  Am
You feel bad, but not bad enough
                      Gm                           Dm
You know you had it coming, 'cause you played so rough
                  Dm                 Am
Back over your shoulder, got an icy chill
                            Gm
And you thought you'd get away with it
                         Dm
Now you know you never will


Chorus:

   Gm        Dm
Somebody! Somebody!
Am                  A                   Dm
You got a feelin', somebody's following you


Verse 2:

         Dm                        Am
No one knows, about the times you had
                Gm                            Dm
You've been so evil! You know you've been so bad
                   Dm                            Am
There's a devil to pay, for what you put them through
                 Gm                           Dm
And you got a feeling, somebody's following you


Chorus:

   Gm        Dm
Somebody! Somebody!
Am                 A                     Dm
You got a feelin', somebody's following you
   Gm        Dm
Somebody! Somebody!
Am                 A                     Dm
You got a feelin', somebody's following you


Solo 1:

            Bb           Dm                       Am      A            Dm
-----10--10-10-----------10--10------------------------------------------
---10--10--------------10--10--10-10-8----------------------10-10-8----10
---------------------------------------10-7-------------------------10---
------------------------------------------------7h10-7h10-7--------------
-------------------------------------------------------------------------
-------------------------------------------------------------------------

   Bb              Dm                    Am        A         Dm
---15-13-12--------13-13-13-12-10----------------------------------------|
------------11-------------------10--------------------------------------|
-------------------------------------------------------------------------|
---------------------------------------7h10-7h10-7h11-----3-3-O----------|
-------------------------------------------------------------------------|
-------------------------------------------------------------------------|


Verse 3:

                          Dm                    Am
There's a jack-o-lantern moon, in the midnight sky
                Gm                  Dm
Somebody gonna live, somebody gonna die
                  Dm                        Am
But down in the graveyard, on that old tombstone
                     Gm                         Dm
There's a big black crow, and it's callin' you home!


Chorus:

    Gm       Dm
Somebody! Somebody!
Am                  A                   Dm
You got a feelin', somebody's following you
    Gm       Dm
Somebody! Somebody!
Am                  A                   Dm
You got a feelin', somebody's following you


Solo 2 (Outro):

         Bb            Dm     Am  A   Dm
-------------------------------8-9---10--10------------------------------
-----------------------------------10--10--10-10-8----10-----------------
---------------------------------------------------10--------------------
---3-2-O---------3-2-O---------------------------------------------------
---------1-------------O-------------------------------------------------
-------------------------------------------------------------------------

   Bb                Dm                   Am          A       Dm
---15--13-12s10------10--10------------------------------------1-|
-------------------10--10--10-10-8-----------------------------3-|
-----------------------------------10-7------------------------2-|
------------------------------------------7h10-7h10-7h11---3-3-O-|
---------------------------------------------------------------O-|
---------------------------------------------------------------O-|



Chords:

      Bb: E-6       Dm: E-1       Am: E-O       A: E-O       Gm: E-3
          B-6           B-3           B-1          B-2           B-3
          G-7           G-2           G-2          G-2           G-3
          D-8           D-O           D-2          D-2           D-5
          A-8           A-O           A-O          A-O           A-5
          E-6           E-O           E-O          E-O           E-3


                              -Corey Davies-
            
Hard to play? Try these video lessons and learn fast. | Correct




comments powered by Disqus
↑ Back to top | Tablatures and chords are parodies/interpretations of the original songs. You may use it for private study, scholarship, research or language learning purposes only