» » »

Eagles, Sad Cafe Bass tabs (ver.1)

Artists:  A B C D E F G H I J K L M N O P Q R S T U V W X Y Z # 

Sad Cafe Bass tabs (ver.1)

Eagles Tabs
Rating:
0/5 (0 votes)
Sad Cafe lessons Tabs too difficult? Try these video lessons and learn fast
                |---------------------|
|-------2--4----------|
|----2------------2---|
|-2-----------2-------|
                                                        x4
|-----4r------4r-------------|--------4r------4r----------|
|---------2-----4------4r----|------------2-----4----4----|
|-2-----2------------------2-|----2-----2---------------2-|
|-----------------2------2---|-2------------------2-------|

|----4r-----4r-----------|--------4r------6r-----------|
|--------2----4----4r----|---------------------4-------|
|-2----2---------------2-|----2-----2-4------4-------2-|
|---------------2----2---|-2---------------------2-----|

|-------------------------------------|
|4-6--6-6----6h8p6--------------------|
|4--------6\--------4-5-6--6--6--6----|
|-----------4-------------------------|

|-------------------------------------------|
|-8-7-6--6-6----------------------2-3-4--4-4|                    
|------------6\-------2---4--4-4------------|
|--------------4--4-4---4-------------------|
                                                      x2
|--------4r-----4r-----------|------4r-----6r-----------|
|------------2----4----4r----|------------------4-------|
|----2-----2---------------2-|---2----2-4-----4-------2-|
|-2-----------------2----2---|-2-------------------2----|

The clouds roll in...
|---------------------------|------------------------|
|-----------------------2-4-|------------------4-----|
|-9\------------------------|--------------------6-4-|
|----2--2-2--2-2--2-2-2-----|-2--2-2--2-2--2-2-------|


|------------------------|---------------------|
|--------------------2-4-|---------x-4--4-4----|
|------------------------|---------------------|
|-2--2-2--2-2--2-2-2-----|-2--2-2-----------9\-|

|--------------------------------------------------|
|----------------2-2-0-2-------------2----2-2------|
|---------------------------------------2----------|
|-0--0-0--0-0--0----------0--0-0--2----------0-1-2-|

|-------------------------------------------------|
|-------------4----4-4-2-4-----------4--4-4-------|
|--------------------------------------------5\-2-|
|-2-2--2-2--2----2---------2--2-2--2--------------|

|----------------------------|
|-2--4------------2--4-------|
|-------2-2----2-----------2-|
|------------2----------2----|

|----4r-----4r-----------|--------4r------6r-----------|
|--------2----4----4r----|---------------------4-------|
|-2----2---------------2-|----2-----2-4------4-------2-|
|---------------2----2---|-2---------------------2-----|

|--------------|----------------------|
|-------4------|----------2-3-4-------|
|-2--4-------2-|----2--4------------2-|
|---------2----|-2---------------2----|

|-------6r----------|----------------------|
|-----------4-------|----------2-3-4-------|
|-2--4----4-------2-|----2--4------------2-|
|--------------2----|-2---------------2----|

|-------6r----------|----------------------|
|-----------4-------|------------2-4-------|
|-2--4----4-------2-|----2--4--4---------2-|
|--------------2----|-2---------------2----|

|-----------------------|----------6r-----------|
|-----------2-3-4-------|--------------4--------|
|-----2--4------------2-|----2--4----4--------2-|
|-2-4--------------2----|-2----------------2----|

Fade out...
|-------------------------|
|-4-4---------2-3-4-------|
|-------2--4------------2-|
|-----2--------------2----|

Thanks, please rate it after you learn it.
            

comments powered by Disqus
↑ Back to top | Eagles Bass for Sad Cafe. Lyrics for acoustic guitar and electric guitar. Tablatures and chords are parodies/interpretations of the original songs. You may use it for private study, scholarship, research or language learning purposes only