» » »

Eagles, Please Come Home For Chrismas Bass tabs (ver.1)

Artists:  A B C D E F G H I J K L M N O P Q R S T U V W X Y Z # 

Please Come Home For Chrismas Bass tabs (ver.1)

Eagles Tabs
 Rating:
4/5 (4 votes)
Please Come Home For Chrismas lessons Tabs too difficult? Try these video lessons and learn fast
                Please rate this tabs & leave me a message for more to come...
Enjoy !!
Bruno from UK


Tuning : EADG 

Verse(s) 1/2/3

      Piano playing  (Verse 1)    Part 1  (Bells will be ringing... )   
|------------------------|------------------------|------------------------|
|------------------------|------------------------|------------------------|
|------------------------|--------4--7------------|-9--7--4----------------|
|------------------------|5-----------------------|-----------5------------|
  
|------------------------|------------------------|------------------------|
|---7--------------------|------------------------|------------------------|
|--------9--7--4--5------|5-5---------4--5--6-----|6-6-----5--6--7---------|
|5-----------------------|------------------------|-----------------5------|
       
|------------------------|------------------------|------------------------|
|------------------------|-----7--7/6--6/4--4-----|4-----------------------|
|-3--4--5----------------|6--7--------------------|--0-2---2-2---4--5--7---|
|------------5-----------|------------------------|------------------------|

                          Part 2   (Quiet, we'll be singing... ) 
|------------------------|------------------------|------------------------|
|------------------------|------------------------|------------------------|
|-7--9---9--7------------|--------4--7------------|-9--7--4----------------|
|----------------------5-|5-----------------------|-----------5------------|

|------------------------|------------------------|------------------------|
|---7--------------------|------------------------|------------------------|
|--------9--7--4--5------|5-5---------4--5--6-----|6-6-----5--6------------|
|5-----------------------|------------------------|--------------5---------|
          
|------------------------|------------------------|------------------------|
|------------------------|-----7--7/6--6/4--4-----|4-----------------------|
|-3—4--5-----------------|6--7--------------------|--0-2---1-2---4---------|
|------------5-----------|------------------------|-----------------5--5-5-|


 Brige   (congratulatrions... ) 
|------------------------|------------------------|------------------------|
|------------------------|------------------------|---------7--7-----------|
|----------5---5-5-------|----------5---5-5-------|-------------7--7-------|
|-5--7--5----------------|-5--7--5----------------|-5--7--5---------4------|

|------------------------|------------------------|------------------------|
|-7--9--7--4-------------|------------------------|------------------------|
|------------7--9--7--5--|5-5-----------5---5-5---|------------4--5--7-----|
|------------------------|------5--7--5-----------|-5--7--7-7--------------|
          

 Verse 4                  part 1 (So won't you tell me... ) 
|------------------------|------------------------|------------------------|
|------------------------|------------------------|------------------------|
|------------------------|--------4--7------------|-9--7--4----------------|
|----------------------5-|5-----------------------|-----------5------------|

|------------------------|------------------------|------------------------|
|---7--------------------|------------------------|------------------------|
|--------9--7--4--5------|5-5---------4--5--6-----|6-6-----5--6------------|
|5-----------------------|------------------------|--------------5---------|
          
|------------------------|------------------------|------------------------|
|------------------------|-----7---6---4----------|4-----------------------|
|-3--4--5----------------|6--7--------------------|--0-2---1-2---4---------|
|------------5-----------|------------------------|--------------------5---|


 Solo                     part 2
|------------------------|------------------------|------------------------|
|------------------------|------------------------|------------------------|
|-3--4--5----------------|--------4--7------------|-9--7--4----------------|
|----------------------5-|5-----------------------|-----------5------------|
  
|------------------------|------------------------|------------------------|
|---7--------------------|------------------------|------------------------|
|--------9--7--4--5------|5-5---------4--5--6-----|6-6-----5--6--7---------|
|5-----------------------|------------------------|-----------------5------|
       
|------------------------|------------------------|------------------------|
|------------------------|-----7--7/6--6/4--4-----|4-----------------------|
|-3--4--5----------------|6--7--------------------|--0-2---1-2----4--------|
|------------5-----------|------------------------|--------------------5---|

|------------------------|------------------------|------------------------|
|--4---------------------|------------------------|------------------------|
|------7---5-------------|------------------------|------------------------|
|---------------5--------|------------------------|------------------------|
                                                                Piano ending 
            
Submit corrections

comments powered by Disqus
↑ Back to top | Eagles Bass for Please Come Home For Chrismas. Lyrics for acoustic guitar and electric guitar. Tablatures and chords are parodies/interpretations of the original songs. You may use it for private study, scholarship, research or language learning purposes only