>
 >
New York Minute

New York Minute Bass Tabs

Eagles - New York Minute chords, tabs, tablatures, lyrics

Guitar lessons | Add/correct | Request | Top 50 tabs Artists:  A B C D E F G H I J K L M N O P Q R S T U V W X Y Z 0-9

New York Minute Bass Tabs – Eagles

CD, Sheet music, Poster

Do you like New York Minute? Share with your friends now
Bass TabsBass Tabs v2ChordsUkulele

Bass: 4-string fretless
Tuning: G, D, A, E


Intro:
|--10-/-12-15-12~-|-------------------------|---------------|-----|
|-----------------|-15-13-12-13-15----------|---------------|-----|
|-----------------|-----------------13-/-15-|-8-h-9-p-8-6---|-----|
|-----------------|-------------------------|-------------8-|-8-\-|

Verse 1:
|---|---|-------|---------|-----8-7-------|-------|-------|----------8-----|
|---|---|-8-\---|---------|---------10~---|-------|-------|-------10---10~-|
|---|---|-------|---------|--10-----------|-------|-------|---/-10---------|
|-4-|-6-|-----4-|-6-/-8-6-|-------------8-|-3-3-4-|-5-5-7-|-8--------------|

|---|--------------|-12~13--------|---------|-------|-8-7--------|-----|-----|
|---|---6----------|-------13-----|---------|-8-/10-|-----10-8-5-|-----|-----|
|---|-6------------|----------11~-|---------|-------|------------|-----|-----|
|-4-|-----6-/-8-6~-|--------------|-6-/-8-6-|-----8-|------------|-4-5-|-7-8-|

|---------15-17-15----------|
|-15-/-17----------17-15----|
|------------------------15-|
|---------------------------|

Chorus:
|---|-----|---|-----|-----------|---------------|---|-----|-------|-----------|
|---|-----|---|-----|-----------|---8-6---------|---|-----|-------|-----------|
|---|-----|---|-----|-----------|-6-----8-6-----|---|-----|-------|-----6-----|
|-3-|-3-4-|-4-|-6-8-|-3-4-/-6-4-|-----------6-8-|-3-|-3-4-|-4-6-8-|-3-6---3-4-|

|----------------|
|--8-6-----------|
|6-----8-6-------|
|----------6-8-\-|

Verse 2:
|---|-8-p-7~---|-7-\-5~-|---------|-7-h-8-p-7-------------|-------|---|---|---|---|---|
|---|----------|--------|---------|-----------8--------9~-|-9-----|---|---|---|---|---|
|---|--------5-|--------|---------|-------------8-/-10----|---9---|---|---|---|---|---|
|-4-|----------|--------|-6-/-8-6-|-----------------------|-----7-|-3-|-4-|-5-|-7-|-8-|

|-12-p-10-9-10-/-12-8----|
|---------------------10-|
|------------------------|
|------------------------|

Chorus:
|---|-----|---|-----|-----------|---------------|---|-----|---------|
|---|-----|---|-----|-----------|---8-6---------|---|-----|---------|
|---|-----|---|-----|-----------|-6-----8-6-----|---|-----|---------|
|-3-|-3-4-|-4-|-6-8-|-3-4-/-6-4-|-----------6-8-|-3-|-3-4-|-4-6-8-\-|

Bridge:
G---|------------|---------------------|---------|-7-h-8-p-7--------------|---------|
D---|-6-5-3------|---5-----------------|---6-5-3-|-----------8--------10~-|-10------|
A---|--------5-3-|-------5-6-3---0-3---|---------|-------------8-/-10-----|----10---|
E-1-|------------|-3-----------------3-|-1-------|------------------------|-------8-|
         
|-------|------------|-------|-------|----|
|-------|------------|-------|-------|----|
|---3---|-----3-1----|-8-7-5-|-3-----|-3~-|
|-3---3-|-1-3-----4--|-------|---5-3-|----|

Solo-thingy:
|-12-15-----------|-----------|
|-------12-15-----|-----------|
|-------------15~-|-10-8-7----|
|-----------------|--------8~-|

|--------7-8-|------8-/-10-8-|------7-8-|------8-/-10-8-|-----|
|------------|---------------|----------|---------------|-----|
|-----10-----|---10----------|---10-----|---10----------|-----|
|---8--------|-8-------------|-8--------|-8-------------|-8-\-|

Verse 3:
|---|---|---|---------|-7-h-8-p-7--------------|--------|---|---|---|---|----------|
|---|---|---|---------|-----------8--------10~-|-10-----|---|---|---|---|----------|
|---|---|---|---------|-------------8-/-10-----|---10---|---|---|---|---|----------|
|-4-|-6-|-4-|-6-/-8-6-|------------------------|------8-|-3-|-4-|-5-|-7-|-8-/-11-8-|

|----------------|---|-------|-------|---------7-h-8-p-7--------------|---------|
|--------8-/-10~-|---|-6-/-8-|-8-\-6-|-------------------8--------10~-|-10------|
|------6---------|---|-------|-------|---------------------8-/-10-----|----10---|
|-8-10-----------|-4-|-----6-|-----4-|-6-/-8-6------------------------|-------8-|

|---|---|---|---|---|---------15-17-15----------|
|---|---|---|---|---|-15-/-17----------17-15----|
|---|---|---|---|---|------------------------15-|
|-3-|-4-|-5-|-7-|-8-|---------------------------|

Chorus:
|---|-----|---|-----|-----------|---------------|---|-----|-------|-----------|
|---|-----|---|-----|-----------|---8-6---------|---|-----|-------|-----------|
|---|-----|---|-----|-----------|-6-----8-6-----|---|-----|-------|-----6-----|
|-3-|-3-4-|-4-|-6-8-|-3-4-/-6-4-|-----------6-8-|-3-|-3-4-|-4-6-8-|-3-6---3-4-|

|--------------|
|--8-6---------|
|6-----8-6-----|
|----------6-8-|

|---|-----|--------------|---|-----------|---|-----|-----------|
|---|-----|--8-6---------|---|-----------|---|-----|-----6-----|
|---|-----|6-----8-6-----|---|-----------|---|-----|---6-------|
|-3-|-3-4-|----------6-8-|-3-|-3-4-/-6-4-|-4-|-6-8-|-3-----3-4-|

|-----------------|
|--8-6------------|
|6-----8-6--------|
|----------6-8~-\-|





Comments


Popular Eagles tabs & chords
In The City Bass Tabs
Lyin Eyes 5 Chords
Take It Easy 2 Chords
After The Thrill Is Gone Intro Tabs
Hotel California Live 3 Tabs
I Can't Tell You Why 1 Tabs
Love Will Keep Us Alive Tabs
One Of These Nights Intro Tabs
Peacful Easy Feeling Tabs
Somebody Tabs


Song lyrics



↑ Back to top | Tablatures and chords are parodies/interpretations of the original songs. You may use it for private study, scholarship, research or language learning purposes only
© 2014 AZChords.com Contact us | Privacy policy | DMCA | Add/correct tabs | Request tabs | Top 50 tabs