» » »

Eagles, A New Kid In Town Bass tabs (ver.4)

Artists:  A B C D E F G H I J K L M N O P Q R S T U V W X Y Z # 

A New Kid In Town Bass tabs (ver.4)

Eagles Tabs
 Rating:
4/5 (4 votes)
A New Kid In Town lessons Tabs too difficult? Try these video lessons and learn fast
1
                Band:  The Eagles

Tuning : EADG

 Inro  X1
|------------------------------------------------------------|
|-----9-9-----9-9----------------------------------------9-9-|
|---7-------7-----7--9-9----9-9----7-7----9-9--7-9-9---7-----|
|---------7---------7----5-7---7-5----5-7-----7-------7------|


 Verse 1 (00:19)  X2
|------------------------------------------------------------|
|-----9-9-----9-9----------------------------------------9-9-|
|---7-------7-----7--9-9----9-9----7-7----9-9--7-9-9---7-----|
|---------7---------7----5-7---7-5----5-7-----7-------7------|
There's talk on the street, it sounds so familiar;
great expectations, ev'rybody's watchin' you.
People you meet they all seem to know you,
even your old friends treat you like you're somethin' new.


 Chorus (00:54)
|-------------6-----------6-----------6-----6-----------|
|---------------6---6-5-4---6---6-5-4-----4---4---------|
|----(6)-6-5-4----4-----------4---------4---------9--7L-|
|--4--------------------------------------------7-------|
Johnny come lately,
the new kid in town.
Ev'rybody loves you,
so don't let them down.


   Verse 2 (01:13)   
|-------------------------------------------------|-
|---------------------------------------9-9---9-9-|-
|---7-9-9---7-9-9------9-9-----9-9----7-----7-----|-
|------------------7-5-----5-7------7-------------|-
You look in her eyes, the music begins to play,
hopeless romantics, here we go again.

|-------------------------------------------------------------|
|-----9-9-----9-9-----------------------------------------9-9-|
|---7-------7-----7--9-9----9-9----7-7----9-9---7-9-9---7-----|
|-7-------7---------7----5-7----7-5----5-7-----7-------7------|
But after a while you're lookin' the other way,
it's those restless hearts that never mend.


Chorus (01:49)
|-------------6-----------6-----------6-----6----------|
|---------------6---6-5-4---6---6-5-4-----4---4--------|
|----(6)-6-5-4----4-----------4---------4---------9-7L-|
|--4--------------------------------------------7------|
Johnny come lately,
the new kid in town.
Will she still love you
when you're not around?


SOLO (02:08)
|--------------------------------------------------------------|
|-----9-9-----9-9-----------------------------------------9----|
|---7-------7-----7--9-9----9-9----7-7----9-9---7-9-9---7---7L-|
|---------7---------7----5-7---7-5----5-7------7-------7-------|
 

Bridge (02:25)
|-------------------------------------------------------------------|
|-------------------------9-9-----9-9-------------------------11-11-|
|-7-9-7---9-9-----9-9---7-------7-----7---9-9----9-9--11-11--9------|
|-------7-----5-7-----7-------7---------7-----5-7----9------9-------|
There's so many things you should have told her,
but night after night you're willing to hold her,
just hold her, tears on your shoulder.


Verse 3 (02:48) X2
|-----7----7------------------------------------7----7-|
|---5----5---5---7---7------------5------7----5----5---|
|-3----5-------5------7--5---5-3----3-5-----5----3-----|
|------------------------------------------------------|
There's talk on the street, it's there to remind you.
Doesn't really matter which side you're on.
You're walkin' away and they're talkin' behind you,
they will never forget you 'til somebody new comes along.


Riff (03:21)
|-----------9--------------9-------------9---------------|
|-------------9-8-7----------9-8-7---------9-8-7--(7)----|
|-----10-9-7---------10-9-7---------10-9-7-----------7---|
|---7--------------------------------------------------7-|
Where've you been lately?
There's a new kid in town.
Ev'rybody loves him (don't they?)


Riff (03:34) X3
|------------------------|
|------------------------|
|--7-7-6--6-4--4-0-----7-|
|------------------5-7---|
Now he's holdin' her and you're still around.
There's a new kid in town,
just another new kid in town.


Outro (04:07)
|------------------------------|
|-----9----9-----6-----6-------|
|---7----7---7-4-----4---6-(7)-|
|------7-----------4-----------|
Oooh oooh 
Ev'rybody's talkin' 'bout the new kid in town.
Ev'rybody's talkin' 'bout the new kid in town.

There's a new kid in town, (I don't want to hear it)
There's a new kid in town, (I don't want to hear it)


Till fading out.........
            
Submit corrections

comments powered by Disqus
↑ Back to top | Eagles Bass for A New Kid In Town. Lyrics for acoustic guitar and electric guitar. 1 Tablatures and chords are parodies/interpretations of the original songs. You may use it for private study, scholarship, research or language learning purposes only