>
 >
Lying Eyes

Lying Eyes Bass Tabs

Eagles - Lying Eyes chords, tabs, tablatures, lyrics

Guitar lessons | Add/correct | Request | Top 50 tabs Artists:  A B C D E F G H I J K L M N O P Q R S T U V W X Y Z 0-9

Lying Eyes Bass Tabs – Eagles

CD, Sheet music, Poster

Do you like Lying Eyes? Share with your friends now
Bass TabsChordsTabsUkulele
Tuning: E A D G 
Notes :  With the lyrics, even better… enjoy !
 
Intro (start with first note)
G---------------------------------------------|- 
D-5-50-5-55----5----5----------7-5--5-50-5-55-|-
A-----------3-3--3-3-3----7-5-5----5----------|-
E----------------------5-5—-------------------|-

Verse 1
  00:14  
G---------------------------------------------|- 
D-5-50-5-50-----5----5----------------7----7--|- 
A------------3-3--3-3-3----7----7—-5-5—-5-5—5-|- 
E-----------------------5-5—-5-5-5------------|-
City girls just seem to find out early
How to open doors with just a smile

G---------------------------------------------|- 
D-5-50-5-50-----5----5---------------7----7---|-
A------------3-3--3-3-3---7----7—-5-5—-5-5—-5-|- 
E----------------------5-5—-5-5-5-------------|-
A rich old man
And she won't have to worry
She'll dress up all in lace and go in style

G------------------------------------------------|- 
D-5-50-5-50-----5----5---------------------------|- 
A------------3-3--3-3-3----7----7—-5-5/3—3/2-2/0-|- 
E-----------------------5-5—-5-5-8---------------|-
Late at night a big old house gets lonely
I guess every form of refuge has it's price
G---------------------------------------------|- 
D-5-50-5-50-----5----5---------------7----7---|-
A------------3-3--3-3-3---7----7—-5-5—-5-5—-5-|- 
E----------------------5-5—-5-5-5-------------|-
And it breaks her heart to think her love is
Only given to a man with hands as cold as ice

    
G------------------------------------------------|- 
D-5-50-5-50-----5----5---------------------------|- 
A------------3-3--3-3-3----7----7—-5-5/3—3/2-2/0-|- 
E-----------------------5-5—-5-5-8---------------|-
So she tells him she must go out for the evening
To comfort an old friend who's feeling down
G-----------------------------------------|- 
D-5-50-5-50-----5----5---------------7—-5-|-
A------------3-3--3-3-3---7----7--5-5--5--|- 
E----------------------5-5—-5-5-----------|-
But he knows where she's going as she's leaving
She is headed for the cheatin' side of town



Chorus 
  01:41
G----------------------------------------------|- 
D-5-55-5-55-5-55-5-55/4-44/2-22/---------------|-
A-------------------------------2-22/3-33/5-55-|-
E-------------------------—--------------------|-
You can't hide your lying eyes
And your smile is a thin disguise

G----------------------------------------|- 
D-5-55-5-55-----------7-77-9-7—5-0-4-(5)-|-
A-----------3-33-0-00--------------------|- 
E------------------------—---------------|-
I thought by now you'd realize
There ain't no way to hide your lying eyes


Bridge 
  02:07
G-------------------------------------------|- 
D-5-50-5-55----5----5----------7--5-50-5-50-|-
A-----------3-3--3-3-3----7-5-5--5----------|-
E----------------------5-5—-----------------|-



Verse 2
  02:21           
G------------------------------------------------|- 
D-5-50-5-50-----5----5---------------------------|- 
A------------3-3--3-3-3----7----7—-5-5/3—3/2-2/0-|- 
E-----------------------5-5—-5-5-8---------------|-
On the other side of town a boy is waiting
With fiery eyes and dreams no one could steal
G---------------------------------------------|- 
D-5-50-5-50-----5----5---------------7----7---|-
A------------3-3--3-3-3---7----7—-5-5—-5-5—-5-|- 
E----------------------5-5—-5-5-5-------------|-
he drives on through the nice anticipating
Cause he makes her feel the way she used to feel

     
G------------------------------------------------|- 
D-5-50-5-50-----5----5---------------------------|- 
A------------3-3--3-3-3----7----7—-5-5/3—3/2-2/0-|- 
E-----------------------5-5—-5-5-8---------------|-
She rushes to his arms, 
They fall together
She whispers that it's only for awhile
G-----------------------------------------|- 
D-5-50-5-50-----5----5---------------7—-5-|-
A------------3-3--3-3-3---7----7--5-5--5--|- 
E----------------------5-5—-5-5-----------|-
She swears that soon she'll be coming back forever
She pulls away and leaves him with a smile



Chorus 
  03:18
G----------------------------------------------|- 
D-5-55-5-55-5-55-5-55/4-44/2-22/---------------|-
A-------------------------------2-22/3-33/5-55-|-
E-------------------------—--------------------|-
You can't hide your lying eyes
And your smile is a thin disguise
G----------------------------------------|- 
D-5-55-5-55-----------7-77-9-7—5-0-4-(5)-|-
A-----------3-33-0-00--------------------|- 
E------------------------—---------------|-
I thought by now you'd realize
There ain't no way to hide your lying eyes


Bridge 
  03:45
G--------------------------------------------|- 
D-5-50-5-55----5----5---------7-5--5-50-5-50-|-
A-----------3-3--3-3-3----7-55----5----------|-
E----------------------5-5—------------------|-



VERSE 3 
  03:59      

G---------------------------------------------|- 
D-5-50-5-50-----5----5----------------7----7--|- 
A------------3-3--3-3-3----7----7—-5-5—-5-5—5-|- 
E-----------------------5-5—-5-5-5------------|-
She gets up and pours herself a strong one
And stares out at the stars up in the sky
G---------------------------------------------|- 
D-5-50-5-50-----5----5---------------7----7---|-
A------------3-3--3-3-3---7----7—-5-5—-5-5—-5-|- 
E----------------------5-5—-5-5-5-------------|-
Another night, it's gonna be a long one
She draws the shade and hangs her head to cry

G------------------------------------------------|- 
D-5-50-5-50-----5----5---------------------------|- 
A------------3-3--3-3-3----7----7—-5-5/3—3/2-2/0-|- 
E-----------------------5-5—-5-5-8---------------|-
She wonders how it ever got this crazy
She thinks about a boy she knew in school
G---------------------------------------------|- 
D-5-50-5-50-----5----5---------------7----7---|-
A------------3-3--3-3-3---7----7—-5-5—-5-5—-5-|- 
E----------------------5-5—-5-5-5-------------|-
Did she get tired or did she just get lazy? 
She's so far gone she feels just like a fool

   
G------------------------------------------------|- 
D-5-50-5-50-----5----5---------------------------|- 
A------------3-3--3-3-3----7----7—-5-5/3—3/2-2/0-|- 
E-----------------------5-5—-5-5-8---------------|-
My, oh my, you sure know how to arrange things
You set it up so well, so carefully
G-----------------------------------------|- 
D-5-50-5-50-----5----5---------------7—-5-|-
A------------3-3--3-3-3---7----7--5-5--5--|- 
E----------------------5-5—-5-5-----------|-
Ain't it funny how your new life didn't change things
You're still the same old girl you used to be


05:24
Chorus 
G----------------------------------------------|- 
D-5-55-5-55-5-55-5-55/4-44/2-22/---------------|-
A-------------------------------2-22/3-33/5-55-|-
E-------------------------—--------------------|-
You can't hide your lying eyes
And your smile is a thin disguise
G----------------------------------------|- 
D-5-50-5-50-----------7-77-9-7—5-0-4-5---|-
A-----------3-33-0-00--------------------|- 
E---------------------—------------------|-
I thought by now you'd realize
There ain't no way to hide your lying eyes

(fading out) 
G---------------------------|- 
D-5-50-5-50-7-77-9-7—5--4-5-|-
A----------------------5----|- X3
E--------------------------—|-
There ain't no way to hide your lying eyes
Honey you can't hide your lying eyes

G------------------|- 
D------------------|-
A------------------|- 
E—5-55-7-5-3-0-2-3-|- Lower ½  note(optional)
06:24 





Comments


Popular Eagles tabs & chords
New Kid In Town 2 Bass Tabs
The Long Run 1 Bass Tabs
Already Gone Chords
Heartache Tonight Chords
You Are Not Alone Chords
Take It Easy 1 Drum Tabs
Hotel California Tabs
In The City 3 Tabs
Guilty Of The Crime Ukulele
Try And Love Again Ukulele


Song lyrics



↑ Back to top | Tablatures and chords are parodies/interpretations of the original songs. You may use it for private study, scholarship, research or language learning purposes only
© 2014 AZChords.com Contact us | Privacy policy | DMCA | Add/correct tabs | Request tabs | Top 50 tabs