>
 >
Life In The Fastlane 1

Life In The Fastlane 1 Bass Tabs

Eagles - Life In The Fastlane 1 chords, tabs, tablatures, lyrics

Guitar lessons | Add/correct | Request | Top 50 tabs Artists:  A B C D E F G H I J K L M N O P Q R S T U V W X Y Z 0-9

Life In The Fastlane 1 Bass Tabs – Eagles

CD, Sheet music, Poster

Do you like Life In The Fastlane 1? Share with your friends now
Bass Tabs
THE EAGLES - "Life In the Fastlane" - Bass Tab

Common Time(4/4)
Standard Tuning(EADG)

INTRO:
|---------|---------|---------|---------|-------------|
|---------|---------|---------|---------|-------------|
|-.-------|---------|-.-------|---------|-.---------.-|
|-0-------|---------|-0-------|---------|-0---------0-|
  1 2 3 4   1 2 3 4   1 2 3 4   1 2 3 4   1 2 3 4 & a

|---------------|-------------|---------|
|---------------|-------------|---------|
|-.-----.-.---.-|-.---------.-|-.-------|
|-0-----0-0---0-|-0---------0-|-0-------|
  1 2 3 4 e & a   1 2 3 4 & a   1 2 3 4

PRE-VERSE:
|-----------------------|
|*-------------------.-*|
|*-.-----------------7-*|(x4)
|--0---0---r-0---r-0----|
   1 & a 2 & a 3 & a 4

VERSES 1 & 3:
                    (x8)                    (x2)
|-----------------------|--------------------.--|
|*-------------------.-*|*-.-----------------7-*|
|*-.-----------------7-*|*-0---0---r-0---r-0---*|
|--0---0---r-0---r-0----|-----------------------|
   1 & a 2 & a 3 & a 4     1 & a 2 & a 3 & a 4

                    (x2)                    (x2)
|-----------------------|--------------------4--|
|*-------------------.-*|*-.-------------------*|
|*-.-----------------7-*|*-2---2---r-2---r-2---*|
|--0---0---r-0---r-0----|-----------------------|
   1 & a 2 & a 3 & a 4     1 & a 2 & a 3 & a 4

                    (x2)
|--------------------.--|
|*-.-----------------7-*|
|*-0---0---r-0---r-0---*|
|-----------------------|
   1 & a 2 & a 3 & a 4

1ST CHORUS:
|------------|---------------|-------------|---------|
|------------|---------------|-------------|---------|
|------------|-.-----.-.---.-|-.---------.-|-.-------|
|-12/7-r-r-r-|-0-----0-0---0-|-0---------0-|-0-------|
  1  & 2 3 4   1 2 3 4 e & a   1 2 3 4 & a   1 2 3 4

VERSE 2:
                    (x8)                    (x2)
|-----------------------|--------------------.--|
|*-------------------.-*|*-.-----------------7-*|
|*-.-----------------7-*|*-0---0---r-0---r-0---*|
|--0---0---r-0---r-0----|-----------------------|
   1 & a 2 & a 3 & a 4     1 & a 2 & a 3 & a 4

                    (x2)                    (x2)
|-----------------------|--------------------4--|
|*-------------------.-*|*-.-------------------*|
|*-.-----------------7-*|*-2---2---r-2---r-2---*|
|--0---0---r-0---r-0----|-----------------------|
   1 & a 2 & a 3 & a 4     1 & a 2 & a 3 & a 4

|-------------------.-|---------------------|
|-.-----------------7-|-------------7h5-----|
|-0---0---r-0---r-0---|-0---0---r-0-----5h6-|
|---------------------|---------------------|
  1 & a 2 & a 3 & a 4   1 & a 2 & a 3 & 4 &

2ND CHORUS:
|-----------------|---------------|-------------|---------|
|-----------------|---------------|-------------|---------|
|---------------.-|-.-----.-.---.-|-.---------.-|-.-------|
|-12/10-r-r-r---0-|-0-----0-0---0-|-0---------0-|-0-------|
  1  &  2 3 4 & a  1 2 3 4 e & a   1 2 3 4 & a   1 2 3 4

|----------------|---------------|-------------|---------|
|----------------|---------------|-------------|---------|
|--------------.-|-.-----.-.---.-|-.---------.-|-.-------|
|-12/7-r-r-r---0-|-0-----0-0---0-|-0---------0-|-0-------|
  1  & 2 3 4 & a  1 2 3 4 e & a   1 2 3 4 & a   1 2 3 4

SOLO:
                    (x2)                     (x2)
|--------------------4--|--------------------10--|
|*-.-------------------*|*----------------------*|
|*-2---2---r-2---r-2---*|*-5---5---r-5---r-5----*|
|-----------------------|------------------------|
   1 & a 2 & a 3 & a 4     1 & a 2 & a 3 & a 4

                    (x2)
|--------------------4--|---------------------|-----------------|
|*-.-------------------*|-------------------7-|-----------------|
|*-2---2---r-2---r-2---*|-0---0---r-0---r-0---|-7---------4-5-6-|
|-----------------------|---------------------|---4-5-6-7-------|
   1 & a 2 & a 3 & a 4    1 & a 2 & a 3 & a 4   1 & 2 & 3 & 4 &

|---------|---------|---------|---------|---/13-/13---|
|-.-------|---------|---------|---------|-------------|
|-7-------|---------|---------|---------|-------------|
|---------|---------|-0-------|---------|-0-----------|
  1 2 3 4   1 2 3 4   1 2 3 4   1 2 3 4   1  2   3  4

|-13-11-9---11---9---|---/13-/13---|-13-11-9---11------------|
|--------------------|-------------|-------------------------|
|--------------------|-------------|-------------------------|
|--------------------|-0-----------|----------------12/7/5/4-|
  1  &  2 & a  3 & 4   1  2   3  4   1  &  2 & a  3 &  4 e &

END:
|---------|---------|---------|---------|---------|---------|
|---------|---------|---------|---------|---------|---------|
|---------|---------|-5-------|---------|-3-------|---------|
|-0-------|---------|---------|---------|---------|---------|
  1 2 3 4   1 2 3 4   1 2 3 4   1 2 3 4   1 2 3 4   1 2 3 4

                        (repeat to fade-out)
|---------|---------|-----------------------|
|---------|---------|*-------------------.-*|
|-0-------|---------|*-------------------7-*|
|---------|---------|--0---0---r-0---r-0----|
  1 2 3 4   1 2 3 4    1 & a 2 & a 3 & a 4





Comments


Popular Eagles tabs & chords
Hotel California 2 Bass Tabs
Lyin Eyes 3 Bass Tabs
Lying Eyes Bass Tabs
Tequila Sunrise 2 Bass Tabs
One Day At A Time Chords
The Long Run 1 Chords
Hotel California Tabs
Hotel California Live 1 Tabs
Life In The Fast Lane Tabs
Seven Bridges Road Tabs


Song lyrics



↑ Back to top | Tablatures and chords are parodies/interpretations of the original songs. You may use it for private study, scholarship, research or language learning purposes only
© 2014 AZChords.com Contact us | Privacy policy | DMCA | Add/correct tabs | Request tabs | Top 50 tabs