» » »

Eagles, Last Good Time In Town Bass tabs (ver.1)

Artists:  A B C D E F G H I J K L M N O P Q R S T U V W X Y Z # 

Last Good Time In Town Bass tabs (ver.1)

Eagles Tabs
Rating:
0/5 (0 votes)
Last Good Time In Town lessons Tabs too difficult? Try these video lessons and learn fast
                Eagles (Joe Walsh)
Last good time in town

Tempo : 115 bpm

Intro  00:25
G|------------|-------------|-
D|------------|-------------|-
A|--5--7--8---|-5--5/7-5-8--|- x8
E|------------|-------------|-


Verse 1 (Part1) 00:57
G|------------|-------------|-
D|------------|-------------|-
A|--5--7--8---|-5--5/7-5-8--|- x3
E|------------|-------------|-
I like to go out every now and then
I can't wait to do it again
But I haven't had the time

01:10
G|------------|- -|------------|-
D|-----5------|- -|-7--5-------|-
A|--8---------|- -|------8--7--|-
E|------------|- -|------------|-
Lately

(Part2) 01:14
G|------------|-------------|-
D|------------|-------------|-
A|--5--7--8---|-5--5/7-5-8--|- x3
E|------------|-------------|-
I like to step out every once in a while
I kind of like to do it in style
I haven't had the time

01:27
G|------------|-
D|-----5------|-
A|--8---------|-
E|------------|-
Lately


Bridge 1 (01:29)

Lately I've been stayin' at home. . .

G|------------|-------------|-
D|------------|-------------|-
A|--5--7--8---|-5--5/7-5-8--|-
E|------------|-------------|-
(Stayin' at home, stayin' at home)
Workin' the crosswords, turn off the phone. . .

G|------------|-------------|-
D|------------|-------------|-
A|--5--7--8---|-5--5/7-5-8--|-
E|------------|-------------|-
(Turn off the phone, turn off the phone)

G|------------|-
D|-----5------|-
A|--8---------|-
E|------------|-

Chorus (Part1) 01:52
G|----9-11-12--|--12-11-9-7---|-----9-----|-------|-12-11-9-7-9--|-
D|-------------|--------------|--11---7---|-7-9-7-|--------------|-
A|-------------|--------------|-----------|-------|--------------|-
E|-------------|--------------|-----------|-------|--------------|-
And I dream I'm on vacation
'Cause I like the way that sounds

G|----9-11-12--|--12-11-9-7---|-----9-------|----------------|-
D|-------------|--------------|--11---7-----|--9--9-7--------|-
A|-------------|--------------|-------------|----------------|-
E|-------------|--------------|-------------|----------------|-
It's a perfect occupation
For me

G|------------|-
D|------7-9---|-
A|--7-9-------|-
E|------------|-


(Part2) 02:09
G|----9-11-12--|--12-11-9-7---|-----9-----|-------|-12-11-9-7-9--|-
D|-------------|--------------|--11---7---|-7-9-7-|--------------|-
A|-------------|--------------|-----------|-------|--------------|-
E|-------------|--------------|-----------|-------|--------------|-
I don't mind being by myself
If there's no one else around

G|-----7-9-----|-------------|-
D|-7-9---------|-12-10-9-----|-
A|-------------|---------5~~-|-
E|-------------|-------------|-
It's the last good time in town


Instrumental break 02:25
G|------------|-------------|------------|-
D|------------|-------------|------------|-
A|---5~~------|---5~~-------|---5~~------|-
E|------------|-------------|------------|-

Verse 2 (Part1) 02:38
G|------------|-------------|-
D|------------|-------------|-
A|--5--7--8---|-5--5/7-5-8--|- x3
E|------------|-------------|-
Well, I could stand up straight, get a real job
Stay up late with the same old mob
But it hasn't crossed my mind

G|------------|- -|------------|-
D|-----5------|- -|-7--5-------|-
A|--8---------|- -|-------8--7-|-
E|------------|- -|------------|-
Lately

(Part2) 02:55
G|------------|-------------|-
D|------------|-------------|-
A|--5--7--8---|-5--5/7-5-8--|- x3
E|------------|-------------|-
Put on a suit, work downtown
Then come up when the sun goes down
No, I haven't had the time

G|------------|-
D|-----5------|-
A|--8---------|-
E|------------|-
Lately

Bridge 2 03:11

Lately I've been stayin' at home. . .

G|------------|-------------|-
D|------------|-------------|-
A|--5--7--8---|-5--5/7-5-8--|-
E|------------|-------------|-
(Stayin' at home, stayin' at home)
Closin' the curtains, play jazz on trombone. . .

G|------------|-------------|-
D|------------|-------------|-
A|--5--7--8---|-5--5/7-5-8--|-
E|------------|-------------|-
(Jazz on trombone, jazz on trombone)

G|------------|-
D|-----5------|-
A|--8---------|-
E|------------|-


Chorus (Part1) 03:31
G|----9-11-12--|--12-11-9-7---|-----9-----|-------|-12-11-9-7-9--|-
D|-------------|--------------|--11---7---|-7-9-7-|--------------|-
A|-------------|--------------|-----------|-------|--------------|-
E|-------------|--------------|-----------|-------|--------------|-
And I dream I'm on vacation
No, you won't see me around


G|----9-11-12--|--12-11-9-7---|-----9-------|----------------|-
D|-------------|--------------|--11---7-----|--9--9-7--------|-
A|-------------|--------------|-------------|----------------|-
E|-------------|--------------|-------------|----------------|-
It's a perfect situation
For me

G|------------|-
D|------7-9---|-
A|--7-9-------|-
E|------------|-


G|----9-11-12--|--12-11-9-7---|-----9-----|-------|-12-11-9-7-9--|-
D|-------------|--------------|--11---7---|-7-9-7-|--------------|-
A|-------------|--------------|-----------|-------|--------------|-
E|-------------|--------------|-----------|-------|--------------|-
I don't mind being by myself
'Cause I know you'll come on down


|-----7-9-----|-------------|-
D|-7-9---------|-12-10-9-----|-
A|-------------|---------5~~-|-
E|-------------|-------------|-
It's the last good time . . . in town


G|--------|-
D|--------|-
A|--5~~---|-
E|--------|-


Instrumental break 04:03

. . .

Reprise Bass 04:10
G|------------|-------------|-
D|------------|-------------|-
A|--5--7--8---|-5--5/7-5-8--|- x3

E|------------|- -|------------|-
G|------------|- -|------------|-
D|-----5------|- -|-7--5-------|-
A|--8---------|- -|------8--7--|-

E|------------|-------------|-
G|------------|-------------|-
D|------------|-------------|-
A|--5--7--8---|-5--5/7-5-8--|- x3
E|------------|-------------|-
5
G|------------|-
D|-----5------|-
A|--8---------|-
E|------------|-

G|----9-11-12--|--12-11-9-7---|-----9-----|-------|-12-11-9-7-9--|-
D|-------------|--------------|--11---7---|-7-9-7-|--------------|-
A|-------------|--------------|-----------|-------|--------------|-
E|-------------|--------------|-----------|-------|--------------|-

G|----9-11-12--|--12-11-9-7---|-----9-------|----------------|-
D|-------------|--------------|--11---7-----|--9--9-7--------|-
A|-------------|--------------|-------------|----------------|-
E|-------------|--------------|-------------|----------------|-

G|------------|-
D|------7-9---|-
A|--7-9-------|-
E|------------|-

G|----9-11-12--|--12-11-9-7---|-----9-----|-------|-12-11-9-7-9--|-
D|-------------|--------------|--11---7---|-7-9-7-|--------------|-
A|-------------|--------------|-----------|-------|--------------|-
E|-------------|--------------|-----------|-------|--------------|-

G|-----7-9-----|-------------|-
D|-7-9---------|-12-10-9-7---|-
A|-------------|-------------|-
E|-------------|-------------|-


Bridge 3 (05:13)

Lately I've been stayin' at home. . .

G|------------|-------------|-
D|------------|-------------|-
A|--5--7--8---|-5--5/7-5-8--|-
E|------------|-------------|-
(Stayin' at home, stayin' at home)
Workin' the crosswords, turn off the phone. . .

G|------------|-------------|-
D|------------|-------------|-
A|--5--7--8---|-5--5/7-5-8--|-
E|------------|-------------|-
(Turn off the phone, turn off the phone)


G|------------|-
D|-----5------|-
A|--8---------|-
E|------------|-


Chorus 05:32
G|----9-11-12--|--12-11-9-7---|-----9-----|-------|-12-11-9-7-9--|-
D|-------------|--------------|--11---7---|-7-9-7-|--------------|-
A|-------------|--------------|-----------|-------|--------------|-
E|-------------|--------------|-----------|-------|--------------|-
And I dream I'm on vacation
'Cause I like the way that sounds


G|----9-11-12--|--12-11-9-7---|-----9-------|----------------|-
D|-------------|--------------|--11---7-----|--9--9-7--------|-
A|-------------|--------------|-------------|----------------|-
E|-------------|--------------|-------------|----------------|-
It's a perfect occupation
For me, yes it is


G|------------|-
D|------7-9---|-
A|--7-9-------|-
E|------------|-

G|----9-11-12--|--12-11-9-7---|-----9-----|-------|-12-11-9-7-9--|-
D|-------------|--------------|--11---7---|-7-9-7-|--------------|-
A|-------------|--------------|-----------|-------|--------------|-
E|-------------|--------------|-----------|-------|--------------|-
I don't mind being by myself
If you don't see me around

G|-----7-9-----|-------------|-
D|-7-9---------|-12-10-9-----|-
A|-------------|---------5~~-|-
E|-------------|-------------|-
It's the last good time, last good time in town

Instrumental break 06:04
G|------------|-------------|------------|-
D|------------|-------------|------------|-
A|---5~~------|---5~~-------|---5~~------|-
E|------------|-------------|------------|-

Reprise Bass 06:19 06:52
G|------------|-------------||-    ||------------||-
D|------------|-------------||-    ||------------||-
A|--5--7--8---|-5--5/7-5-8--||- x8 ||---5~~------||-
E|------------|-------------||-    ||------------||-

Pause . . . drums + + + ++

END 07:06

that 23737 (april 2013) musicians around the world had been
using my work and I like the idea of sharing music with other
musicians...
So please "rate" my tabs under Bruno Frenchy and look for me
on You Tube for some videos (just a small selection of my work
for now)...
            
Submit corrections

comments powered by Disqus
↑ Back to top | Eagles Bass for Last Good Time In Town. Lyrics for acoustic guitar and electric guitar. Tablatures and chords are parodies/interpretations of the original songs. You may use it for private study, scholarship, research or language learning purposes only