» » »

Eagles, I Dreamed There Was No War Tabs (ver.3)

Artists:  A B C D E F G H I J K L M N O P Q R S T U V W X Y Z # 

I Dreamed There Was No War Tabs (ver.3)

Eagles Tabs
Rating:
0/5 (0 votes)
I Dreamed There Was No War lessons Tabs too difficult? Try these video lessons and learn fast
                I DREAMED THERE WAS NO WAR
                               by THE EAGLES


Hi there, I thought I’d correct David’s tab.  This is my first attempt at a tab too.
Enjoy!

E---------------------------------------------------------------------------|
B-------------------------------10-10----12-10------------------------------|
G-----9-9/11-9-----------9-9/11-------11-------12-9/11-9----7/9----9/11-----|
D--12----------12-7/9-12---------------------------------12-----12----------|
A---------------------------------------------------------------------------|
E---------------------------------------------------------------------------|


E---------------------------------------------------------------------------|
B-------------------10/12-14h15p14-10----12-12-10---------------------------|
G-------9-9/11-9----------------------11----------9/11-9----7/9-------------|
D--7-12----------12--------------------------------------12-----7-7/9-12-12-|
A---------------------------------------------------------------------------|
E---------------------------------------------------------------------------|


E---------------------------------------------------------------------------|
B--15-14-12-10---------10-------7h8p7-15-14-12-10---------10----------------|
G--------------12-9/11----7-7/9-------------------12-9/11----7-7/9----------|
D---------------------------------------------------------------------------|
A---------------------------------------------------------------------------|
E---------------------------------------------------------------------------|


E---------------------------------------------------------------------------|
B-------------------10/12-14h15p14-10----10/12-12-10------------------------|
G-------9-9/11-9----------------------11-------------9/11-------------------|
D--7-12----------12---------------------------------------------------------|
A---------------------------------------------------------------------------|
E---------------------------------------------------------------------------|


E---------------------------------------------------------------------------|
B---------------------------------------------------------------------------|
G--9----7/9-----------------------------------------------------------------|
D----12-----7-7/9-12-12-----------------------------------------------------|
A---------------------------------------------------------------------------|
E---------------------------------------------------------------------------|
            

comments powered by Disqus
↑ Back to top | Eagles Tabs for I Dreamed There Was No War. Lyrics for acoustic guitar and electric guitar. Tablatures and chords are parodies/interpretations of the original songs. You may use it for private study, scholarship, research or language learning purposes only