» » »

I Dreamed There Was No War Tabs (ver.1)

Artists:  A B C D E F G H I J K L M N O P Q R S T U V W X Y Z # 

I Dreamed There Was No War Tabs (ver.1)

Eagles
Rating:
0/5 (0 votes)

Hard to play? Try these video lessons and learn fast.
                                       I DREAMED THERE WAS NO WAR
                               by EAGLES


Hi there, i thought id tab this tune since i really like it and i dont think no one else 
this is my first tab so it could be wrong, i do think its 100% correct but thats up to 
guys to see if it is, anyways enjoy it.


E---------------------------------------------------------------------------|
B---------------------------10-10----12-12-10-------------------------------|
G-------9-11-9---------9-11-------11----------11-9------9-----11------------|
D---12----------12-9-12------------------------------12-----12--------------|
A---------------------------------------------------------------------------|
E---------------------------------------------------------------------------|


E---------------------------------------------------------------------------|
B---------------------12-14h15p14-10-----12-12-10---------------------------|
G--------9-11-9----------------------11-----------11-9----9-----------------|
D--9-12----------12------------------------------------12---12-12-9-12------|
A---------------------------------------------------------------------------|
E---------------------------------------------------------------------------|


E---10-9-7-------------------------10-9-7-----------------------------------|
B-----------10-8-7-10-----7h8p7------------10-8-7-10------------------------|
G---------------------7/9-----------------------------7/9-------------------|
D---------------------------------------------------------------------------|
A---------------------------------------------------------------------------|
E---------------------------------------------------------------------------|


E---------------------------------------------------------------------------|
B---------------------12-14h15p14-10-----12-12-10---------------------------|
G--------9-11-9----------------------11-----------11-9----9-----------------|
D--9-12----------12------------------------------------12---12-12/9/12------|
A---------------------------------------------------------------------------|
E---------------------------------------------------------------------------|


Thanks!
            
Hard to play? Try these video lessons and learn fast. | Correct




comments powered by Disqus
↑ Back to top | Tablatures and chords are parodies/interpretations of the original songs. You may use it for private study, scholarship, research or language learning purposes only