>
 >
I Cant Tell You Why 3

I Cant Tell You Why 3 Bass Tabs

Eagles - I Cant Tell You Why 3 chords, tabs, tablatures, lyrics

Guitar lessons | Add/correct | Request | Top 50 tabs Artists:  A B C D E F G H I J K L M N O P Q R S T U V W X Y Z 0-9

I Cant Tell You Why 3 Bass Tabs – Eagles

CD, Sheet music, Poster

Do you like I Cant Tell You Why 3? Share with your friends now
Bass TabsBass Tabs v2Bass Tabs v3TabsTabs v2Ukulele
-----------------------------------------------------------------------------
                      I CAN'T TELL YOU WHY - The Eagles
-----------------------------------------------------------------------------


Tuning: E A D G

INTRO
|------|------|------|------|-------|---44-|-------|------|
|------|------|------|---44-|-------|-----4|-------|------|
|2-----|------|2-----|------|2--22-2|------|2--22--|-----0|
|------|-----2|------|-----2|-------|------|------2|----2-|

VERSE
|------|-------|------|-------|------|-------|-------|------|
|------|-----76|5-55--|-------|------|-----7-|5-55-7-|4-----|
|5-55--|5-55---|------|---2576|5-55--|5-55--5|-------|----01|
|------|-------|------|3-3----|------|-------|-------|--2---|

CHORUS
|------|-------|------|------|------|------|------|------|
|------|-------|------|--4---|------|------|----54|------|
|2-22--|2-22---|------|----01|2-22--|2-----|------|-----0|
|------|-----02|3-33--|2-----|------|------|3-----|----2-|

VERSE
|------|-------|------|-------|------|-------|-------|------|
|------|-----76|5-55--|-------|------|-----7-|5-55-7-|4-----|
|5-55--|5-55---|------|---2576|5-55--|5-55--5|-------|----01|
|------|-------|------|3-3----|------|-------|-------|--2---|

CHORUS 2
|------|-------|------|------|------|-------|------|------|-------|------|
|------|-------|------|--4---|------|-------|------|--4---|-------|------|
|2-22--|2-22---|------|----01|2-22--|2-22---|------|------|-------|------|
|------|-----02|3-33--|2-----|------|-----02|3-33--|2----2|3-33-5\|2-----|

BRIDGE
|-------|------|-------|------|
|-------|---44-|-------|------|
|2--22-2|------|2--22--|-----0|
|-------|-----2|------2|----2-|

SOLO
|------|-----7---|------|---------|------|-------|-------|------|
|------|--7h9-976|5-55--|--------5|------|-----7-|5-55-7-|4-----|
|5-55--|5--------|------|------25-|5-55--|5-55--5|-------|----01|
|------|---------|------|3-33/5---|------|-------|-------|--2---|

CHORUS 3
|------|-------|-------|------|------|-------|------|------|-------|-------|
|------|-------|-------|--4---|------|-------|------|--4---|-------|-------|
|2-22--|2-22---|-----0-|----01|2-22--|2-22---|------|------|-------|-------|
|------|-----02|3-33---|2-----|------|-----02|3-33--|2----2|3-33-5\|2-22-02|

OUTRO
|-------|------|-------|-------|-------|-------|-------|-------|
|-----25|4-44--|-----25|4-44---|-----25|4-44---|-----25|4-44-76|
|---25--|------|---25--|-------|---25--|-------|---25--|-------|
|3-3----|------|3-3----|-----02|3-3----|-----02|3-3----|-------|

|--------|------|-------|-------|-------|-------|-------|------|
|5-----25|4-44--|-----25|4-44---|-----25|4-44---|-----25|4-44--|
|-5--25--|------|---25--|-------|---25--|-------|---25--|------|
|--3-----|------|3-3----|-----02|3-3----|-----02|3-3----|------|

|-------|-------|-------|------|-------|-------|--------|-------|
|-----25|4-44---|-----25|4-44--|-----25|4-44-76|5-----25|4-44-76|
|---25--|-------|---25--|------|---25--|-------|-5--25--|-------|
|3-3----|-----02|3-3----|------|3-3----|-------|--33----|-------|

|--------|-------|-------|-------|-------|-------|-------|-------|
|5-----25|4-44---|-----25|4-44---|-----25|4-44---|-----25|4-44---|
|-5--25--|-------|---25--|-------|---25--|-------|---25--|-------|
|--3-----|-----02|3-3----|-----02|3-3----|-----02|3-3----|-----02|

|-------|-------|--------|-------|-------|-------|-------|------|
|-----25|4-44-76|5-----25|4-44---|-----25|4-44---|-----25|4-44--|
|---25--|-------|-5--25--|-------|---25--|-------|---25--|------|
|3-3----|-------|--3-----|-----02|3-3----|-----02|3-3----|------|





Comments


Popular Eagles tabs & chords
One Of These Nights 1 Bass Tabs
Midnight Flyer Chords
Peaceful Easy Feeling 2 Chords
Peaceful Easy Feeling 6 Chords
Tequila Sunrise 5 Chords
Hotel California Drum Tabs
Desperado Tabs
Is It True Tabs
Lyin Eyes Ukulele
Train Leaves Here This Morning Ukulele


Song lyrics



↑ Back to top | Tablatures and chords are parodies/interpretations of the original songs. You may use it for private study, scholarship, research or language learning purposes only
© 2014 AZChords.com Contact us | Privacy policy | DMCA | Add/correct tabs | Request tabs | Top 50 tabs