» » »

I Can't Tell You Why Bass tabs (ver.1)

Artists:  A B C D E F G H I J K L M N O P Q R S T U V W X Y Z # 

I Can't Tell You Why Bass tabs (ver.1)

Eagles
Rating:
0/5 (0 votes)

Hard to play? Try these video lessons and learn fast.
                untitled





THE EAGLES - "I Can't Tell You Why" - Bass Tab

Common Time(4/4)
Standard Tuning(EADG)

INTRO:
|---------|-----------|---------|-------------|
|---------|-----------|---------|-------4-4---|
|-2-------|-----------|-2-------|-------------|
|---------|---------2-|---------|-----------2-|
  1 2 3 4   1 2 3 4 &   1 2 3 4   1 2 3 & 4 &

|-------------|-------4-4---|-------------|-----------|
|-----.-.-----|-----------4-|-----.-.-----|-----------|
|-2---2-2---2-|-------------|-2---2-2-----|-----------|
|-------------|-------------|-----------2-|-------2-5-|
  1 2 3 & 4 &   1 2 3 & 4 &   1 2 3 & 4 &   1 2 3 4 &

VERSES 1 & 2/SOLO:
|-----------|-------------|-----------|---------------|
|-----------|---------7-6-|-5---5-5---|---------------|
|-5---5-5---|-5---5-5-----|-----------|-----------7-6-|
|-----------|-------------|-----------|-3---3-3-7-----|
  1 2 & 3 4   1 2 & 3 4 &   1 2 & 3 4   1 2 & 3 & 4 &

|-----------|-------------|-----------|------------|
|-----------|---------7---|-5---5-5-7-|-4----------|
|-5---5-5---|-5---5-5---5-|-----------|------.-----|
|-----------|-------------|-----------|----2-2-2-5-|
  1 2 & 3 4   1 2 & 3 4 &  1 2 & 3 4   1 2 & 3 4 &

1ST CHORUS:
|-----------|-------------|-----------|-------------|
|-----------|-------------|-----------|-----4-------|
|-2---2-2---|-2---2-2-----|-----------|-------------|
|-----------|---------5-2-|-3---3-3---|-2-------2-5-|
  1 2 & 3 4   1 2 & 3 4 &   1 2 & 3 4   1 2 & 3 4 &

|-----------|---------|-----------|-----------|
|-----------|---------|-------5-4-|-----------|
|-2---2-2---|-2-r-r-r-|-----------|-----------|
|-----------|---------|-3---------|-------2-5-|
  1 2 & 3 4   1 2 3 4   1 2 3 4 &   1 2 3 4 &

2ND CHORUS:
|-----------|-------------|-----------|-------------|
|-----------|-------------|-----------|-----4-------|
|-2---2-2---|-2---2-2-----|-----------|-------------|
|-----------|---------5-2-|-3---3-3---|-2-------2-5-|
  1 2 & 3 4   1 2 & 3 4 &   1 2 & 3 4   1 2 & 3 4 &

|-----------|-------------|-----------|-------------|
|-----------|-------------|-----------|-----4-------|
|-2---2-2---|-2---2-2-----|-----------|-------------|
|-----------|---------5-2-|-3---3-3---|-2---------2-|
  1 2 & 3 4   1 2 & 3 4 &   1 2 & 3 4   1 2 & 3 4 &

|-----------|---------|
|-----------|---------|
|-------.---|---------|
|-3---3-3-5-|-2-------|
  1 2 & 3 4   1 2 3 4

PRE-SOLO:
|-------------|-------------|-------------|-----------|
|-----.-.-----|-------4-4---|-----.-.-----|-----------|
|-2---2-2---2-|-------------|-2---2-2-----|-----------|
|-------------|-----------2-|-----------2-|-------2-5-|
  1 2 3 & 4 &   1 2 3 & 4 &   1 2 3 & 4 &   1 2 3 4 &

END CHORUS:
|-----------|-------------|-----------|-------------|
|-----------|-------------|-----------|-----4-------|
|-2---2-2---|-2---2-2-----|-------.---|-------------|
|-----------|---------5-2-|-3---3-3-5-|-2-------2-5-|
  1 2 & 3 4   1 2 & 3 4 &   1 2 & 3 4   1 2 & 3 4 &

|-----------|-------------|-----------|-------------|
|-----------|-------------|-----------|-----4-------|
|-2---2-2---|-2---2-2-----|-----------|-------------|
|-----------|---------5-2-|-3---3-3---|-2---------2-|
  1 2 & 3 4   1 2 & 3 4 &   1 2 & 3 4   1 2 & 3 4 &

|-----------|-------------|---------------|-----------|
|-----------|-------------|-----------2-5-|-4---4-4---|
|-------.---|-------------|---------2-----|-----------|
|-3---3-3-5-|-2---2-2-5-2-|-3---3-3-------|-----------|
  1 2 & 3 4   1 2 & 3 4 &   1 2 & 3 & 4 &   1 2 & 3 4

|---------------|-------------|---------------|-------------|
|-----------2-5-|-4---4-4-----|-----------2-5-|-4---4-4-----|
|---------2-----|-------------|---------2-----|-------------|
|-3---3-3-------|---------5-2-|-3---3-3-------|---------5-2-|
  1 2 & 3 & 4 &   1 2 & 3 4 &   1 2 & 3 & 4 &   1 2 & 3 4 &

|---------------|-------------|---------------|-----------|
|-----------2-5-|-4---4-4-7-6-|-5---------2-5-|-4---4-4---|
|---------2-----|-------------|---5-----2-----|-----------|
|-3---3-3-------|-------------|-----3-3-------|-----------|
  1 2 & 3 & 4 &   1 2 & 3 4 &   1 & 2 3 & 4 &   1 2 & 3 4

                                        (repeat till fade-out)
|----------------|-------------|---------------|--------------|
|*-----------2-5-|-4---4-4-----|-----------2-5-|-4---4-4-----*|
|*---------2-----|-------------|---------2-----|-------------*|
|--3---3-3-------|---------5-2-|-3---3-3-------|---------5-2--|
   1 2 & 3 & 4 &   1 2 & 3 4 &   1 2 & 3 & 4 &   1 2 & 3 4 &
            
Hard to play? Try these video lessons and learn fast. | Correct




comments powered by Disqus
↑ Back to top | Tablatures and chords are parodies/interpretations of the original songs. You may use it for private study, scholarship, research or language learning purposes only