>
 >
How Long 3

How Long 3 Guitar Tabs

Eagles - How Long 3 chords, tabs, tablatures, lyrics

Guitar lessons | Add/correct | Request | Top 50 tabs Artists:  A B C D E F G H I J K L M N O P Q R S T U V W X Y Z 0-9

How Long 3 Guitar Tabs – Eagles

CD, Sheet music, Poster

Do you like How Long 3? Share with your friends now
ChordsChords v2TabsTabs v2Tabs v3Ukulele
-------------------------------------------------------------------------------
                             SONG NAME - Band Name
-------------------------------------------------------------------------------

Tuning: Standard

e|-------------------------8---------------------------------------------|
B|--------------------------------------------10-10-8-8-6-6-4-4-3--------|
G|--------------5h7p5-7/9----pb9ld7p5h7p5--5--10-10-8-8-7-7-5-5-3-1h2---|
D|--7p5---5h7-----------------------------7----------------------3----4--|
A|------7----------------------------------------------------------------|
E|-----------------------------------------------------------------------|

e|-----------------------------/12-8-------------------------------------|
B|-----------------------8-10-8------15------15----15----15---15---------|
G|---------------57-7h9-------------14b16-pb16--pb16--pb16-pb16ld14-12--|
D|-----------5-7---------------------------------------------------------|
A|-3-5p3-5s7-------------------------------------------------------------|
E|-----------------------------------------------------------------------|

e|-----------------------|
B|----8------------------|
G|--pb12ld10-7-5p4-4-5---|
D|----------------5------|
A|-----------------------|
E|-----------------------|

| /  slide up
| \  slide down
| h  hammer-on
| p  pull-off
| pb pre-bend
| ld let down 
| ~  vibrato
| +  harmonic
| x  Mute note
===============================================================================





Comments


Popular Eagles tabs & chords
Peaceful Easy Feeling Bass Tabs
Try And Love Again Bass Tabs
Guilty Of The Crime Chords
Hotel California 6 Chords
Witchy Woman 1 Chords
Hotel California Live Tabs
Life In The Fast Lane (Intro) Tabs
One Of These Nights Tabs
Take It Easy 2 Tabs
After The Thrill Is Gone Ukulele


Song lyrics



↑ Back to top | Tablatures and chords are parodies/interpretations of the original songs. You may use it for private study, scholarship, research or language learning purposes only
© 2014 AZChords.com Contact us | Privacy policy | DMCA | Add/correct tabs | Request tabs | Top 50 tabs