>
 >
Hotel California 7

Hotel California 7 Guitar Tabs

Eagles - Hotel California 7 chords, tabs, tablatures, lyrics

Guitar lessons | Add/correct | Request | Top 50 tabs Artists:  A B C D E F G H I J K L M N O P Q R S T U V W X Y Z 0-9

Hotel California 7 Guitar Tabs – Eagles

CD, Sheet music, Poster

Do you like Hotel California 7? Share with your friends now
Bass TabsBass Tabs v2Bass Tabs v3ChordsChords v2Chords v3Chords v4Chords v5Chords v6Chords v7Chords v8Chords v9Drum TabsTabsTabs v2Tabs v10Tabs v11Tabs v12Tabs v3Tabs v4Tabs v5Tabs v6Tabs v7Tabs v8Tabs v9UkuleleUkulele v2
Eagles, Hotel california

Something like this:

Intro
--------------------------0----|--------------------------2--------------------------------
---0-----------0---------------|-----------0--------0------------0-------------------------
---0-----0-------------0-------|--------0--2-----2-----------2-----------------------------
---2--------2------2-----------|--------------1--------------------1-----------------------
---2--2------------------------|-----------------------2-----------------------------------
---0---------------------------|-----------------------------------------------------------




-------5-----0--------------------------0-----------------0---|----0-----0-----------0----
----------3-----3--------3--------0---------------0-----------|-------------1-------------
----2-----------------2--------2-----------0---------0--0-----|-------0-----------0-------
-0-----------------0--------------------------2---------------|----------------2----------
----------------------------0--------4------------------------|-3-------------------------
--------------------------------------------------------------|---------------------------


-------------------------------3-----------------------------------0-----------------0------
-----1-------------------0-----------0------------0---------0---------------1-----1---------
----------/\---0------0----0------------------0---------------=-------0---------------------
---------0--2------0--------------0----------------------0---------------2-----2------------
-3---------------------------------------2----------------------0---------------------------
------------------------------------------------------3-------------------------------------


------------------------------------2-------------------3-----------0--0------------------
------------0--------------0-------------------0-----------0--0-----------0-----0---------
---0-----------------2--2--------2-------------0--0--0-----------0-----------0--2---------
2--------2--------1-----------1------------=---2------------------------------------------
---------------2-------------------------------2------------------------------------------
------0----------------------------------------0------------------------------------------



-------------2-----------
-------0-----------0-----
----2-----------2--------
-1--------------------1--
----------2--------------
-------------------------


-------5-----0--------------------------0-----------------0---|----0-----0-----------0----
----------3-----3--------3--------0---------------0-----------|-------------1-------------
----2-----------------2--------2-----------0---------0--0-----|-------0-----------0-------
-0-----------------0--------------------------2---------------|----------------2----------
----------------------------0--------4------------------------|-3-------------------------
--------------------------------------------------------------|---------------------------



-------------------------------3-----------------------------------0-----------------0------
-----1-------------------0-----------0------------0---------0---------------1-----1---------
----------/\---0------0----0------------------0---------------=-------0---------------------
---------0--2------0--------------0----------------------0---------------2-----2------------
-3---------------------------------------2----------------------0---------------------------
------------------------------------------------------3-------------------------------------



------------------------------------2---
------------0--------------0------------
---0-----------------2--2--------2------
2--------2--------1-----------1---------
---------------2------------------------
------0---------------------------------


Verso 1

--------3-----------0--0-------------------
0-----------0--0-----------0-----0---------
0--0--0-----------0-----------0--2---------
2------------------------------------------
2------------------------------------------
0------------------------------------------


-------------2-----------
-------0-----------0-----
----2-----------2--------
-1--------------------1--
----------2--------------
-------------------------


-------5-----0--------------------------0-----------------0---|----0-----0-----------0----
----------3-----3--------3--------0---------------0-----------|-------------1-------------
----2-----------------2--------2-----------0---------0--0-----|-------0-----------0-------
-0-----------------0--------------------------2---------------|----------------2----------
----------------------------0--------4------------------------|-3-------------------------
--------------------------------------------------------------|---------------------------



-------------------------------3-----------------------------------0-----------------0------
-----1-------------------0-----------0------------0---------0---------------1-----1---------
----------/\---0------0----0------------------0---------------=-------0---------------------
---------0--2------0--------------0----------------------0---------------2-----2------------
-3---------------------------------------2----------------------0---------------------------
------------------------------------------------------3-------------------------------------



------------------------------------2---
------------0--------------0------------
---0-----------------2--2--------2------
2--------2--------1-----------1---------
---------------2------------------------
------0---------------------------------

Chord

 Bm                        F#
 On a dark desert highway, cool wind in my hair
 A                     E
 Warm smell of colitas rising up through the air
 G                         D
 Up ahead in the distance, I saw a shimmering light
 Em
 My head grew heavy and my sight grew dim
 F#
 I had to stop for the night

 Bm                               F#
 There she stood in the doorway;  I heard the mission bell
 A                                          E
 And I was thinking to myself this could be heaven or this could be hell
 G                        D
 Then she lit up a candle, and she showed me the way
 Em                                   F#
 There were voices down the corridor, I thought I heard them say

 
 Chorus :
 
 G                        D
 Welcome to the Hotel California.
        Em                   Bm7
 Such a lovely place, such a lovely face
 G                               D
 Plenty of room at the Hotel California
 Em                                      F#
 Any time of year (any time of year) you can find it here



Solo



 Bm        	   ~~	     1/4  F#7                      A	   1/2           1/2
|-------------------------------|------------------------|------------------------------------|
|--(15)--10-12-------------7----|------------------------|------7-------------7---------------|
|--------------11s9~~--7h9---7^-|------------------------|--7h9---7^-------7h9---7^-----------|
|-------------------------------|-8---9h12p9--7--(8)---\-|----------9p8-9------------9p7-9p7--|
|-------------------------------|------------------------|------------------------------------|
|-------------------------------|------------------------|------------------------------------|

 E					      G					 D
|--------10--------------------7---10^(12)-|--10-(12)10p7---------10----------|--------10--------------|
|10^(12)----(12)10p7-10-8^(9)----7---------|--------------10^(12)----(12)10-8-|------------------------|
|------------------------------------------|----------------------------------|-9^(11)----(11)9p7-7p6-7|
|------------------------------------------|----------------------------------|------------------------|
|------------------------------------------|----------------------------------|------------------------|
|------------------------------------------|----------------------------------|------------------------|

 Em						       F#7				      ~~
|----------------------------------------------------|----------------------7--------------------|
|------7^(8)-7^(8)(7)-------7^(8)-7^(8)-7^(8)(7)-----|--------7-10--------7-7--------------------|
|--7h9----------------9p7h9----------------------9p7-|-9^(11)------9^(11)-----9^(11)9p7-9^(11)~~-|
|----------------------------------------------------|-------------------------------------------|
|----------------------------------------------------|-------------------------------------------|
|----------------------------------------------------|-------------------------------------------|

 Second solo part
 Bm								     F#7    ~~~
|-----------------------7----------7--7--------7--7----------------|-------------|
|--------7--10--------7-7--------7-7--7--------7--7----------------|-------------|
|-9^(11)-------9^(11)-----9^(11)--------9^(11)------9^(11)-9p7-9-7-|--9^(11)~~~--|
|------------------------------------------------------------------|-------------|
|------------------------------------------------------------------|-------------|
|------------------------------------------------------------------|-------------|

 A		      1/4			 E9		    ~~
|-------------------------------------7--------|-------10------------------|
|-----------------------------10^(12)-----10-7-|-10s12----12p11-10-9~~/----|
|----11^(14)(11)-9-11-7^-----------------------|------------------------14-|
|---x---------------------9-0------------------|---------------------------|
|--x-------------------------------------------|---------------------------|
|-x--------------------------------------------|---------------------------|

 G							  D				       ~~
|--------------------12------------17-----------------|---------15-16-17-17^(19)------------------------|
|--------12--15^(17)----15-17^(19)----(19)17p15-17-15-|-17^(19)-------------------(19)(17)-15~~-17-17p15|
|^(16)------------------------------------------------|-------------------------------------------------|
|-----------------------------------------------------|-------------------------------------------------|
|-----------------------------------------------------|-------------------------------------------------|
|-----------------------------------------------------|-------------------------------------------------|

 Em  			       ~~		  F#7
|-----------17--17------------------------------|-----------17--17------------------------------|
|--17^(19)---------(19)(18)(19)~~--(19)(17)--15-|--17^(19)---------(19)(18)(19)~~--(19)(17)--15-|
|-----------------------------------------------|-----------------------------------------------|
|-----------------------------------------------|-----------------------------------------------|
|-----------------------------------------------|-----------------------------------------------|
|-----------------------------------------------|-----------------------------------------------|


 Third solo part
 Bm						    F#7
|--17^(19)-------------10---------10--------------|-----------------|
|--------------12^(15)----12^(15)-----------------|--11~~~~~~~~~~~~-|
|-------------------------------------11s9p7------|-----------------|
|--------------------------------------------9--8-|-----------------|
|-------------------------------------------------|-----------------|
|-------------------------------------------------|-----------------|

 A                                                           1/4  E9		    ~~
|-----12^(14)-(13)(13)(13)(13)(13)(13)-12-12-12-12p10----12-10^-|----------------------------------------|
|---x-------------------------------------------------12--------|--12~~--10---------------10~~-\---------|
|--x------------------------------------------------------------|-----------11s9--7--9s11---------9^(11)-|
|---------------------------------------------------------------|----------------------------------------|
|---------------------------------------------------------------|----------------------------------------|
|---------------------------------------------------------------|----------------------------------------|

 G					 D	 	   ~~~
|--10----9---7-------------------------|---14--12-10-----------------------|
|-----10---8---7-10---8----------------|-----------------------------------|
|-------------------7-----7------------|-7-----------12^(14)(12)-11~~~--11-|
|-----------------------9---7s5p4-5s7--|-----------------------------------|
|--------------------------------------|-----------------------------------|
|--------------------------------------|-----------------------------------|

 Em				  F#7
|-------------------------------|------------9------10------12-|
|------------------10------12---|---11-------------------------|
|--12------12-------------------|------------------------------|
|-------------------------------|------------------------------|
|-------------------------------|------------------------------|
|-------------------------------|------------------------------|

Outro Part (Play twice)
 Bm	                                    F#7 			A
|14p10---14p10---14p10---14p10---14p10---|-12p9---12p9---12p9-9s18~~|-12p9---12p9---12p9---12p9---12p9--|
|-----12------12------12------12------12-|-----11-----11------------|-----10-----10-----10-----10-----10|
|----------------------------------------|--------------------------|-----------------------------------|
|----------------------------------------|--------------------------|-----------------------------------|
|----------------------------------------|--------------------------|-----------------------------------|
|----------------------------------------|--------------------------|-----------------------------------|

 E9			  G				  D
|-10p7--10p7--10p7-7s16~~-|-10p7--10p7--10p7--10p7--10p7--|-10-----10-----10---10s14~~-|
|-----9-----9-------------|-----8-----8-----8-----8-----8-|---10-----10-----10---------|
|-------------------------|-------------------------------|-----11-----11--------------|
|-------------------------|-------------------------------|----------------------------|
|-------------------------|-------------------------------|----------------------------|
|-------------------------|-------------------------------|----------------------------|

 Em
|-7---7---7---7---7---|-9-----9----9---9s14~~-|
|--8---8---8---8---8--|--11----11---11--------|
|---9---9---9---9---9-|----11----11-----------|
|---------------------|-----------------------|
|---------------------|-----------------------|
|---------------------|-----------------------|

 B
|----------|
|----------|
|----------|
|-9-9-9-9--|
|-9-9-9-9--|
|-7-7-7-7--|





Comments


Popular Eagles tabs & chords
A New Kid In Town 1 Bass Tabs
Lyin Eyes 3 Bass Tabs
Lying Eyes Bass Tabs
Desperado 2 Chords
You Are Not Alone Chords
Hotel California Live 3 Tabs
How Long 3 Tabs
Life In The Fast Lane 3 Tabs
How Long Ukulele
I Cant Tell You Why Ukulele


Song lyrics



↑ Back to top | Tablatures and chords are parodies/interpretations of the original songs. You may use it for private study, scholarship, research or language learning purposes only
© 2014 AZChords.com Contact us | Privacy policy | DMCA | Add/correct tabs | Request tabs | Top 50 tabs