>
 >
Hotel California 6

Hotel California 6 Guitar Tabs

Eagles - Hotel California 6 chords, tabs, tablatures, lyrics

Guitar lessons | Add/correct | Request | Top 50 tabs Artists:  A B C D E F G H I J K L M N O P Q R S T U V W X Y Z 0-9

Hotel California 6 Guitar Tabs – Eagles

CD, Sheet music, Poster

Do you like Hotel California 6? Share with your friends now
Bass TabsBass Tabs v2Bass Tabs v3ChordsChords v2Chords v3Chords v4Chords v5Chords v6Chords v7Chords v8Chords v9Drum TabsTabsTabs v2Tabs v10Tabs v11Tabs v12Tabs v3Tabs v4Tabs v5Tabs v6Tabs v7Tabs v8Tabs v9UkuleleUkulele v2
Ok, the chords are simple, they're tabbed out here at the start if you need
them.  The solo is split between two guitar in the original recording and I've
put where each guitar is involved and above is their tab.  Not much timing was
put on the tab either and you have to work out how far some of the bends go.
Some of the bends are written like '^' and some are written as 'br'.  ^ means you
just bend it up and don't bring it back down to the original note, br means bend
and release meaning that you do bring it back down.
This should be pretty much perfect as it was taken from Guitar Techniques Sept.
2002 so enjoy.

Chords
Bm:     x24432
F#7:    242322
A:      x02220
E7:     020100
G:      320003
D/F#:   2x0232
Em:     022000
F#7/C#: x42322


Verse Chords: Bm, F#7, A, E7, G, D/F#, Em, F#7/C# (basically a chord a line)

On a dark desert highway
Cool wind in my hair
Warm smell of colitas
Rising up through the air
Up ahead in the distance
I saw a shimmering light
My head grew heavy, and my sight grew dim
I had to stop for the night
There she stood in the doorway
I heard the mission bell
And I was thinking to myself
This could be Heaven or this could be Hell
Then she lit up a candle
And she showed me the way
There were voices down the corridor
I thought I heard them say

Chorus Chords: G, D/F#, F#7, Bm, G, D/F#, Em, F#7/C#

Welcome to the Hotel California
Such a lovely place
Such a lovely place (background)
Such a lovely face
Plenty of room at the Hotel California
Any time of year
Any time of year (background)
You can find it here
You can find it here

Verse Chords: Bm, F#7, A, E7, G, D/F#, Em, F#7/C# 

Her mind is Tiffany twisted
She's got the Mercedes bends
She's got a lot of pretty, pretty boys
That she calls friends
How they dance in the courtyard
Sweet summer sweat
Some dance to remember
Some dance to forget
So I called up the Captain
Please bring me my wine
He said
We haven't had that spirit here since 1969
And still those voices are calling from far away
Wake you up in the middle of the night
Just to hear them say

Chorus Chords: G, D/F#, F#7, Bm, G, D/F#, Em, F#7/C#

Welcome to the Hotel California
Such a lovely Place
Such a lovely Place (background)
Such a lovely face
They're livin' it up at the Hotel California
What a nice surprise
What a nice surprise (background)
Bring your alibies

Verse Chords: Bm, F#7, A, E7, G, D/F#, Em, F#7/C# 

Mirrors on the ceiling
Pink champagne on ice
And she said
We are all just prisoners here
Of our own device
And in the master's chambers
They gathered for the feast
They stab it with their steely knives
But they just can't kill the beast
Last thing I remember
I was running for the door
I had to find the passage back to the place I was before
Relax said the nightman
We are programed to recieve
You can check out any time you like
But you can never leave  

Solo:
|------------------------------------------------------------------------------
|------10h12-12^--10-12-------7-------------------7--------------7-------------
|-9/11------------------9-7h9---7----4h7p4----7h9---7--------7h9---7-----------
|---------------------------------8--------7^---------9/8-9----------9p7-9p7---
|------------------------------------------------------------------------------
|------------------------------------------------------------------------------
 guitar 1                                                                     

-----10---------------7----10^--10-10br-7-----10---------------10-------------
-10b----r10-7-10-8^-----7-----------------10b----r10-8-x-x--------------------
------------------------------------------------------------9^----9brp7-7/6---
------------------------------------------------------------------------------
------------------------------------------------------------------------------
------------------------------------------------------------------------------
                                                                              

---------------------------------------------------7----------|----------------
----x------7^-7br-------7^-7^-7br--------7-10----7------------|-----7-10----7--
-7--x--7h9--------9p7-9-----------9p7-9^------9^-----9brp7-9^-|--9^------9^----
----x---------------------------------------------------------|----------------
----x---------------------------------------------------------|----------------
--------------------------------------------------------------|----------------
                                                                 ^guitar 2              

-7----7------7-7-------------------------------------------7----------10------
--------7----7-7---------------------------------------10^---10-7-10^----12---
---9^-----9^-----9brp7-9-7-9^--/-------r11-9-11-7----7------------------------
---------------------------------------------------9--------------------------
------------------------------------------------------------------------------
------------------------------------------------------------------------------
                               ^gliss  ^(pre-bend to 14)                       

------------------------------------17------------------15-16-17-17/19--------
-11-10-9--/---------12-15-17-15-17b----r17-15-17-15-17^----------------17^----
----------------14^-----------------------------------------------------------
------------------------------------------------------------------------------
------------------------------------------------------------------------------
------------------------------------------------------------------------------
          ^gliss                                                              

|-------------------17--17--------------------------17-17----------------------
|-15-17--17p15--17^--------^17-17b--r17-15h17-17^---------^17-17^--17brp15-----
|------------------------------------------------------------------------------
|------------------------------------------------------------------------------
|------------------------------------------------------------------------------
|------------------------------------------------------------------------------
| guitar 1                                                                              
|
|------------------------------------------------------------------------------
|------------------------------------------------------------------14brp12-----
|------------------------------------------------------------------------------
|------------------------------------------------------------------------------
|------------------------------------------------------------------------------
|------------------------------------------------------------------------------
 guitar 2                                                                     

|-----------------10-----10----------------------------------------------------
|-------------13^----13^---------------11--------------------------------------
|-13^-----------------------11/------------------------------------------------
|--------------------------------9/8-------------------------------------------
|------------------------------------------------------------------------------
|------------------------------------------------------------------------------
| guitar 1                    ^gliss                                           
|
|------------------------------------------12^-14-14-14-14-14-13-13-13-13------
|--17^-------------------------------------------------------------------------
|------------------------------------------------------------------------------
|------------------------------------------------------------------------------
|------------------------------------------------------------------------------
|------------------------------------------------------------------------------
 guitar 2                                   ^gradual release, pick            

                                                                
|-------------------------------------------10----9----7-----------------------
|--------------------------------------10^-----10----8---7-10---8--------------
|-------------------------------------------------------------9-----7----------
|-----------------------------------------------------------------9---7--------
|-----------------------------------------------------------------------10-9---
|------------------------------------------------------------------------------
| guitar 1                                                                     
|
|-12p10----12-10----------------------------7----------------------------------
|-------12-------12-10-------------10----------7--10---7-----------------------
|----------------------11/9-7-9\11-----9^------------9---7-9----7--------------
|-------------------------------------------------------------9-----7----------
|-----------------------------------------------------------------9---9-7/5----
|------------------------------------------------------------------------------
 guitar 2


|----------14----12p10-------------------------------------------9--10---12----
|-------------------------------------------------10---12---11-----------------
|------7---------------12br-11---11----12-----12-------------------------------
|----7-------------------------------------------------------------------------
|-10---------------------------------------------------------------------------
|------------------------------------------------------------------------------
| guitar 1                 
|
|----------7--------------------------------------------------------7----9-----
|----------------10p7-----------------------------7----8----7----11------------
|----------------------9br--7----7-----9------9--------------------------------
|------7-----------------------------------------------------------------------
|-7\9--------------------------------------------------------------------------
|------------------------------------------------------------------------------
 guitar 2                                                                     
                                                    

|-14p10----14p10----14p10----14p10----14p10-----12p9----12p9----12p9-/18-------
|-------12-------12-------12-------12-------12-------11------11----------------
|------------------------------------------------------------------------------
|------------------------------------------------------------------------------
|------------------------------------------------------------------------------
|------------------------------------------------------------------------------
| guitar 1                                                                     
|
|-10p7-----10p7-----10p7-----10p7-----10p7------9p6-----9p6-----9p6-/14--------
|-------7--------7--------7--------7--------7--------7-------7-----------------
|------------------------------------------------------------------------------
|------------------------------------------------------------------------------
|------------------------------------------------------------------------------
|------------------------------------------------------------------------------
 guitar 2                                                                     

|-12p9----12p9----12p9----12p9----12p9-----10p7---10p7---10p7-/16--------------
|------10------10------10------10------10-------9------9-----------------------
|------------------------------------------------------------------------------
|------------------------------------------------------------------------------
|------------------------------------------------------------------------------
|------------------------------------------------------------------------------
| guitar 1                                                                     
|
|-9p5-----9p5-----9p5-----9p5-----9p5------7p4-----7p4-----7p4-/12-------------
|------5-------5-------5-------5-------5--------5-------5----------------------
|------------------------------------------------------------------------------
|------------------------------------------------------------------------------
|------------------------------------------------------------------------------
|------------------------------------------------------------------------------
 guitar 2                                                                     

|-10p7---10p7---10p7---10p7---10p7----10p5---10p5---10p5-/14-------------------
|------8------8------8------8------8-------7------7----------------------------
|------------------------------------------------------------------------------
|------------------------------------------------------------------------------
|------------------------------------------------------------------------------
|------------------------------------------------------------------------------
| guitar 1                                                                     
|
|-7p3----7p3----7p3----7p3----7p3-----5p2----5p2----5p2-/10--------------------
|------3------3------3------3------3-------3------3----------------------------
|------------------------------------------------------------------------------
|------------------------------------------------------------------------------
|------------------------------------------------------------------------------
|------------------------------------------------------------------------------
 guitar 2                                                                     

|-7p3---7p3---7p3---7p3---7p3-----9p6---9p6---9p6-/14--------------------------
|-----5-----5-----5-----5-----5-------7-----7----------------------------------
|------------------------------------------------------------------------------
|------------------------------------------------------------------------------
|------------------------------------------------------------------------------
|------------------------------------------------------------------------------
| guitar 1                                                                     
|
|-3p0---3p0---3p0---3p0---3p0-----6p2---6p2---6p2-/9---------------------------
|-----0-----0-----0-----0-----0-------2-----2----------------------------------
|------------------------------------------------------------------------------
|------------------------------------------------------------------------------
|------------------------------------------------------------------------------
|------------------------------------------------------------------------------
 guitar 2                                                     





Comments


Popular Eagles tabs & chords
Best Of My Love 1 Bass Tabs
Lyin Eyes Bass Tabs
Lyin Eyes 3 Bass Tabs
Hotel California 2 Tabs
Learn To Be Still 1 Tabs
Lyin Eyes 3 Tabs
Tequila Sunrise 3 Tabs
The Disco Strangler Tabs
Desperado Ukulele
Tequila Sunrise 2 Ukulele


Song lyrics



↑ Back to top | Tablatures and chords are parodies/interpretations of the original songs. You may use it for private study, scholarship, research or language learning purposes only
© 2014 AZChords.com Contact us | Privacy policy | DMCA | Add/correct tabs | Request tabs | Top 50 tabs