>
 >
Hotel California 4

Hotel California 4 Guitar Tabs

Eagles - Hotel California 4 chords, tabs, tablatures, lyrics

Guitar lessons | Add/correct | Request | Top 50 tabs Artists:  A B C D E F G H I J K L M N O P Q R S T U V W X Y Z 0-9

Hotel California 4 Guitar Tabs – Eagles

CD, Sheet music, Poster

Do you like Hotel California 4? Share with your friends now
Bass TabsBass Tabs v2Bass Tabs v3ChordsChords v2Chords v3Chords v4Chords v5Chords v6Chords v7Chords v8Chords v9Drum TabsTabsTabs v2Tabs v10Tabs v11Tabs v12Tabs v3Tabs v4Tabs v5Tabs v6Tabs v7Tabs v8Tabs v9UkuleleUkulele v2
#------------------------------------------------------------------------------##

                                HOTEL CALIFORNIA
                            As recorded by The Eagles
                     (From the 1976 Album HOTEL CALIFORNIA)

Words and Music by Don Henley, Glenn Frey and Don Felder

          Bm                   F#7                 Asus2                E9/G#
      7 9 9 7 7 7          x 9 8 9 7 9         x x 7 9 10 7         x 11 9 7 7 7

           G                    D                   Em7                 F#+5
     x 10 9 7 8 7         10 9 7 7 7 10         x 7 9 7 8 7          x 9 8 7 7 x

         F7b9
      x 8 7 8 7 8

Gtr I (E A D G B E) - 'Gtr. 1'
Gtr II (E A D G B E) - 'Gtr. 2'
Gtr III (E A D G B E) - 'Gtr. 3'
Gtr IV (E A D G B E) - 'Gtr. 4'
Gtr V (E A D G B E) - 'Gtr. 5'
Gtr VI (E A D G B E) - 'Gtr. 6'

 Intro
  Moderately Slow Q=80
  Bm                     F#7                  Asus2
 4/4
  Gtr I
  E S S S S S S Q  E E   E S S S S S S H      E S  S  S E  S E S  S E S S
|---------------7------|---------9----------|-----12----7------------------|
|-7-------7----------7-|-----7-------7------|--------10---10-----10-----7--|
|-7---7-------7----7-9-|---9-------9--------|---9--------------9------9----|
|-9-----9---9----------|-8-------------8----|-7--------------7-------------|
|-9-9------------------|-------9------------|-----------------------7------|
|-7--------------------|--------------------|------------------------------|


  E9/G#                 G
   E S S S S S S H       E S S S S S S E  S S S S E
|----7-----------7----|----7---7-------7------------|
|----------7----------|----------8----------8-------|
|------7-----7-7------|------7-------7------------7-|
|--------9------------|------------9----------7h9---|
|-11------------------|-10---------------10---------|
|---------------------|-----------------------------|


  D                             Em7
  E S S S  S S S E S S  E S S   E S S S S S S E S S E S S
|---------10------------------|---7-----------7------------|
|-----7--------7-----7------7-|---------8---8-----------7--|
|---7---7----------7----------|-----7-------------7--------|
|-7----------7------------7---|-------9---9-----9-----9----|
|----------------9------------|-7--------------------------|
|----------------------10-----|---------------------7------|


  F#7                  Bm7                        F#7
  Gtr II
                                      ~           ~~
  W                    H              Q     Q     Q.         E   H
|--------------------|--------------------------|---------------------|
|--------------------|--------------------------|---------------------|
|--------------------|--------------------------|---------------------|
|--------------------|-0--------------2-----4---|-2----------0--------|
|--------------------|--------------------------|----------------4----|
|--------------------|--------------------------|---------------------|
|
| Gtr I
| E S S S S S S H      E S S  S S S S E S S E E   E  S S S S S S H
|---------------9----|-------10-------7-7-------|----------9----------|
|---------7----------|-7--------7-7-------7---7-|------7-------7------|
|-----9-9-----9------|-7-7-7--------7-------7-9-|----9-------9--------|
|---8-------8--------|-9------------------------|-8--------------8----|
|-9------------------|-9------------------------|--------9------------|
|--------------------|-7------------------------|---------------------|


  Asus2                         E9/G#
  H              Q      Q        S S S S +S  S S S H
|-----------------------------|-------------------------|
|-----------------------------|-------------------------|
|-----------------------------|--------1-(1)---1--------|
|----------------0------2-----|--2---0-------0---0------|
|-4---------------------------|----2---------------2----|
|-----------------------------|-------------------------|
|
| E S  S  S E  S E S  S E S S    E   S S  S  S S S H
|-----12----7-----------------|------7-------------7----|
|--------10---10-----10-----7-|--------------7----------|
|---9--------------9------9---|--------7-------7-7------|
|-7--------------7------------|-----------9-------------|
|-----------------------7-----|-11----------------------|
|-----------------------------|-------------------------|


  G                             D
   E S S E   S S Q      Q       Q..            S   Q       Q
|-----------------------------|----------------------------------|
|-----------------------------|------------------^-3-------------|
|--------------0--------------|------------------^-2-------2-----|
|------0----------------0-----|------------------^-4-------4-----|
|--2-2---2---2---4------------|-0----------------^-0-------------|
|--3--------------------------|-2--------------2-^(2)------------|
|
|  E S S S S S S E  S S S S E   E   S S S  S S S   E  S S  E S S
|----7---7-------7------------|-----------10---------------------|
|----------8----------8-------|-------7--------7--------7------7-|
|------7-------7------------7-|-----7---7-------------7----------|
|------------9----------7h9---|-7------------7---------------7---|
|-10---------------10---------|--------------------9-------------|
|-----------------------------|---------------------------10-----|


  Em7                             F#7
  E S S S S S S S S S S S S S S   S S S S S S S S H
|-------0---------------------0-|----------------------||
|-0---0---0---0-------0-----0---|-------0-------0------||
|---0-------0-----2-----0-------|-----3---3---3---3----||
|-2-------------4---------------|---4-------4----------||
|-------------------2-----2-----|----------------------||
|-------------------------------|-2--------------------||
|
| E S S S S S S E   S S E   S S   E   S S S S S S H
|---7-----------7---------------|-----------------9----||
|---------8---8---------------7-|-----------7----------||
|-----7---------------7---------|-------9-9-----9------||
|-------9---9-------9-------9---|-----8-------8--------||
|-7-----------------------------|-9--------------------||
|-----------------------7-------|----------------------||


 1st Verse
  Bm                            F#7
  Gtr IV
  E   S S E   S S E S S E S S   E   S S E   S S E S S E S S
      | |     | |   | |   | |       | |     | |   | |   | |
      / /     / /   / /   / /       / /     / /   / /   / /

  Gtr III
  S S S S Q       H             S S S S Q       H
|-----------------------------|-----------------------------|
|-----------------------------|-----------------------------|
|-----------------------------|-----------------------------|
|-------9---------------------|-8-8-------------------------|
|-----9-----------------------|-----9-9---------------------|
|-7-7-------------------------|-----------------------------|
|
| Gtr I
| E   E   S S S S E S S E E     E   S S S S S S H
|-----------------7-----------|-----------9-----------------|
|-----7-----7---------7---7---|-------7-------7-------------|
|---------7-----7---7---7-9---|-----9-------9---------------|
|-9-----------9---------------|-8---------------8-----------|
|-----------------------------|---------9-------------------|
|-----------------------------|-----------------------------|


  Asus2
  E   S  S  E   S  S E S  S E S S
      |  |      |  |   |  |   | |
      /  /      /  /   /  /   / /

  S S S  S  Q        H
|-----------------------------------|
|-----------------------------------|
|-----------------------------------|
|--------7--------------------------|
|-----7-----------------------------|
|-5-5-------------------------------|
|
| E   S  S  S E    S E S  S E S S
|-------12----7---------------------|
|----------10-----10-----10-----7---|
|-----9----------------9------9-----|
|-7------------------7--------------|
|---------------------------7-------|
|-----------------------------------|


  E9/G#                          G
   E   S S E   S S E S S E S S    E   S S E   S S E  S S E   S S
       | |     | |   | |   | |        | |     | |    | |     | |
       / /     / /   / /   / /        / /     / /    / /     / /

   S S S S Q       H              S S S S Q       H
|------------------------------|---------------------------------|
|------------------------------|---------------------------------|
|--------9---------------------|---------------------------------|
|------9-----------------------|--------5------------------------|
|--7-7-------------------------|------5--------------------------|
|------------------------------|--3-3----------------------------|
|
|  E   S S S S S S H              E   S S S S S S E  S S S S E
|------7-----------7-----------|------7---7-------7--------------|
|------------7-----------------|------------8----------8---------|
|--------7-----7-7-------------|--------7-------7------------7---|
|----------9-------------------|--------------9----------7h9-----|
|-11---------------------------|-10-----------------10-----------|
|------------------------------|---------------------------------|


  D
  E   S S E    S S E S S  E S S
      | |      | |   | |    | |
      / /      / /   / /    / /

  S S S S Q        H
|--------------------------------|
|--------------------------------|
|-------7------------------------|
|-----7--------------------------|
|-5-5----------------------------|
|--------------------------------|
|
| E   S S S  S S S E S S  E S S
|-----------10-------------------|
|-------7--------7-----7------7--|
|-----7---7----------7-----------|
|-7------------7------------7----|
|------------------9-------------|
|------------------------10------|


  Em7                           F#7
  E   S S E   S S E S S E S S   E   S S E   S S E S S E S S
      | |     | |   | |   | |       | |     | |   | |   | |
      / /     / /   / /   / /       / /     / /   / /   / /

  S S S S Q       H             S S S S Q       H
|-----------------------------|-----------------------------|
|-----------------------------|-----------------------------|
|-----------------------------|-----------------------------|
|-------9---------------------|-------4---------------------|
|-7-7-9-----------------------|-----4-----------------------|
|-----------------------------|-2-2-------------------------|
|
| E   S S S S S S E S S E S S   E   S S S S S S H
|-----7-----------7-----------|-----------------9-----------|
|-----------8---8-----------7-|-----------7-----------------|
|-------7-------------7-------|-------9-9-----9-------------|
|---------9---9-----9-----9---|-----8-------8---------------|
|-7---------------------------|-9---------------------------|
|-----------------------7-----|-----------------------------|
|
| Gtr VI
| W                             W
|-----------------------------|-----------------------------|
|-----------------------------|-----------------------------|
|-----------------------------|-----------------------------|
|-----------------------------|-----------------------------|
|-----------------------------|-----------------------------|
|-----------------------------|-----------------------------|


  Bm
  Gtr I
  Q       +S S S S E S S E S S
  |        | | | | | | | | | |
  /        / / / / / / / / / /

  S S S S  Q       H
|--------------------------------|
|--------------------------------|
|--------------------------------|
|-------9------------------------|
|-----9--------------------------|
|-7-7----------------------------|
|
| Gtr V
| ~
| W
|--------------------------------|
|--------------------------------|
|-7------------------------------|
|--------------------------------|
|--------------------------------|
|--------------------------------|
|
| ~
| W
|--------------------------------|
|--------------------------------|
|--------------------------------|
|-9------------------------------|
|--------------------------------|
|--------------------------------|


  F#7                   Asus2
  E.     S S E S H      Q       +S E   S E   S S E E
  |      | | | | |      |        | |   | |   | | | |
  /      / / / / /      /        / /   / /   / / / /

  S  S S S Q     H      S S S S  S S S S S S E   E E
|---------------------|------------------------------|
|---------------------|------------------------------|
|---------------------|------------------------------|
|--------4------------|-------7----7-----7-7-7---7-7-|
|------4--------------|-----7----------7-------------|
|-2--2----------------|-5-5--------------------------|
|
| ~~~~~~~~~~~~~~~~~~~~~~~~
| W                     W
|---------------------|------------------------------|
|---------------------|------------------------------|
|-6-------------------|-6----------------------------|
|---------------------|------------------------------|
|---------------------|------------------------------|
|---------------------|------------------------------|
|
| ~~~~~~~~~~~~~~~~~~~~~~~~
| W                     W
|---------------------|------------------------------|
|---------------------|------------------------------|
|---------------------|------------------------------|
|-8-------------------|-7----------------------------|
|---------------------|------------------------------|
|---------------------|------------------------------|


  E9/G#                 G
  E   S S +S S E H      Q       +S S S S E S S E S S
  |   | |  | | | |      |        | | | | | | | | | |
  /   / /  / / / /      /        / / / / / / / / / /

  S S S S  Q     H      S S S S  Q       H
|---------------------|------------------------------|
|---------------------|------------------------------|
|-------9-------------|------------------------------|
|-----9---------------|-------5----------------------|
|-7-7-----------------|-----5------------------------|
|---------------------|-3-3--------------------------|
|
| ~~~~~~~~~~~~~~~~~~~~~~~~~~~~~~~~~~~~~~~~~~~~~~~~~~~~
| W                     W
|---------------------|------------------------------|
|---------------------|------------------------------|
|-4-------------------|-4----------------------------|
|---------------------|------------------------------|
|---------------------|------------------------------|
|---------------------|------------------------------|
|
| ~~~~~~~~~~~~~~~~~~~~~~~~~~~~~~~~~~~~~~~~~~~~~~~~~~~~
| W                     W
|---------------------|------------------------------|
|---------------------|------------------------------|
|---------------------|------------------------------|
|-6-------------------|-5----------------------------|
|---------------------|------------------------------|
|---------------------|------------------------------|


  D
  Q        +S S S S E S S E S S
  |         | | | | | | | | | |
  /         / / / / / / / / / /

  S  S S S  Q       H
|-------------------------------|
|-------------------------------|
|--------7----------------------|
|------7------------------------|
|-5--5--------------------------|
|-------------------------------|
|
|~~~~
| H.                      Q
|-------------------------------|
|-------------------------------|
|-2-----------------------------|
|-------------------------4s====|
|-------------------------------|
|-------------------------------|
|
|~~~~
| H.                      Q
|-------------------------------|
|-------------------------------|
|-------------------------------|
|-4-----------------------------|
|-------------------------5s====|
|-------------------------------|


  Em7                              F#7
  E   S S E S S E S S E    S  S    Q       +S S S S Q.       S S
  |   | | | | | | | | |    |  |    |        | | | | |        | |
  /   / / / / / / / / /    /  /    /        / / / / /        x x

  S S S S Q     H                  S S S S  S S S S H
|--------------------------------|-------------------------------||
|--------------------------------|-------------------------------||
|--------------------------------|-------------------------------||
|-------2------------------------|-------4----4-----4------------||
|-----2--------------------------|---4-4----------4--------------||
|-0-0----------------------------|-2-----------------------------||
|
| ~                                ~
| H             Q     E.     +S    H                Q   E    E
|--------------------------------|-------------------------------||
|--------------------------------|-------------------------------||
|--------------------------------|-------------------------------||
|-5-------------5-----8b9r===(8)-|-8----------------8------------||
|--------------------------------|----------------------9----9---||
|--------------------------------|-------------------------------||
|
| ~                                ~
| H             Q     E.     +S    H                Q   S  S S S
|--------------------------------|-------------------------------||
|--------------------------------|-------------------------------||
|--------------------------------|-------------------------------||
|--------------------------------|-------------------------------||
|-7-------------7-----9b10r==(9)-|-9----------------9----------4-||
|--------------------------------|----------------------2/-6-7---||


 Chorus
  G                          D
  S S S S +S S S S E E E E   S S  S  S +S  E    S     H
  | | | |  | | | | | | | |   | |  |  |  |  |    |     |
  / / / /  / / / / / / / /   x x  /  /  /  /    /     /

  Gtr V
  ~
  W                          W
|--------------------------|------------------------------------|
|--------------------------|------------------------------------|
|--------------------------|------------------------------------|
|-5------------------------|------------------------------------|
|--------------------------|------------------------------------|
|--------------------------|------------------------------------|
|
| Gtr VI
| ~
| W                          E    S  S  S  S S  S  a  E  E  E E
|--------------------------|------------------------------------|
|--------------------------|-----10-10----12---10-12s14-12-10---|
|--------------------------|-----11-------12---11-12s14-12-11---|
|--------------------------|------------------------------------|
|-5------------------------|------------------------------------|
|--------------------------|------------------------------------|


  F#7                         Bm
  S S S S +S E S E. S E S S   S S S S +S S S S Q     E E
  | | | |  | | | |  | | | |   | | | |  | | | | |     | |
  / / / /  / / / /  / / / /   / / / /  / / / / /     / /

                              ~~~~~~~~~~~
  W                           Q        Q       E S S E E
|---------------------------|----------------------------|
|---------------------------|----------------------------|
|---------------------------|----------------------------|
|---------------------------|------------------0-0-0-2-4-|
|---------------------------|-2--------4-----------------|
|---------------------------|----------------------------|


  G                            D
  S S S S +S S S S E S S E E   S     S S     S  +S   E  S  E.     S E S S
  | | | |  | | | | | | | | |   |     | |     |   |   |  |  |      | | | |
  / / / /  / / / / / / / / /   /     / /     /   /   /  /  /      / / / /

  ~                                                                 ~
  W                            S  a  E    a  S  +S   E  S  S  S s S Q
|----------------------------|------------------------------------7s5-----|
|----------------------------|------15------15-(15)-15----------8-8s7-----|
|----------------------------|---14h16---14h16-(16)-14--------7-----------|
|-5--------------------------|-------------------------16\-7--------------|
|----------------------------|--------------------------------------------|
|----------------------------|--------------------------------------------|


  Em7                      F#7              F#+5
  S S S S +S E S E E E E   Q  +S S S S Q  E E
  | | | |  | | | | | | |   |   | | | | |  | |
  x / / /  / / / / / / /   /   / / / / /  / /

  W                        W
|------------------------|--------------------||
|------------------------|--------------------||
|------------------------|--------------------||
|------------------------|--------------------||
|------------------------|--------------------||
|------------------------|--------------------||


 2nd Verse
  Bm                                  F#7
  Gtr I
  E    S S S S S S Q   E  E           E   S S S S S S H
|------------------7----------------|-----------9-----------|
|-7----------7------------7---------|-------7-------7-------|
|-7------7-------7-----7--9---------|-----9-------9---------|
|-9--------9---9--------------------|-8---------------8-----|
|-9----9----------------------------|---------9-------------|
|-7---------------------------------|-----------------------|
|
| Gtrs V, VI
| ~~~
| H.                   e  S     +S    H               Q  Q
|-----------------------------------|-----------------------|
|-----------------------------------|-----------------------|
|-7--------------------9--9b11r=(9)-|-6---------------6-----|
|-9-------------------11-11b12r(11)-|-8---------------8-----|
|-----------------------------------|-----------------------|
|-----------------------------------|-----------------------|
| H.                   E  S     +S    H               Q  Q
|
| Gtr III
| S  S S S Q       H                  S S S S Q       H
|-----------------------------------|-----------------------|
|-----------------------------------|-----------------------|
|-----------------------------------|-----------------------|
|--------9--------------------------|-------4---------------|
|------9----------------------------|-----4-----------------|
|-7--7------------------------------|-2-2-------------------|


  Asus2                            E9/G#
  E    S  S  S E  S E S  S E S S    E    S S S S S S H
|--------12----7-----------------|-------7-----------7------------|
|-----------10---10-----10-----7-|-------------7------------------|
|------9--------------9------9---|---------7-----7-7--------------|
|-7-----------------7------------|-----------9--------------------|
|--------------------------7-----|-11-----------------------------|
|--------------------------------|--------------------------------|
|
|                                   ~~~
| H.                       Q        H.                  E S   +S
|--------------------------------|--------------------------------|
|--------------------------------|----------------------5-5b6r(5)-|
|-6------------------------------|--4-------------------6-6b7r(6)-|
|-7------------------------------|--6-----------------------------|
|--------------------------------|--------------------------------|
|--------------------------------|--------------------------------|
| H.                       Q        H.                  E S   +S
|
| S  S S  S  Q      H               S  S S S Q       H
|--------------------------------|--------------------------------|
|--------------------------------|--------------------------------|
|--------------------------------|---------9----------------------|
|---------7----------------------|-------9------------------------|
|------7-------------------------|--7--7--------------------------|
|-5--5---------------------------|--------------------------------|


  G                                D
   E    S S S S S S E  S S S S E   E    S S S  S S S E S S  E S S
|-------7---7-------7------------|------------10------------------|
|-------------8----------8-------|--------7--------7-----7------7-|
|---------7-------7------------7-|------7---7----------7----------|
|---------------9----------7h9---|-7-------------7------------7---|
|-10------------------10---------|-------------------9------------|
|--------------------------------|-------------------------10-----|
|
|  H.                      Q       H.                       Q
|--------------------------------|--------------------------------|
|--------------------------------|--------------------------------|
|--4-----------------------------|-2------------------------------|
|--5-----------------------------|-4------------------------4-----|
|--------------------------------|--------------------------5-----|
|--------------------------------|--------------------------------|
|  H.                      Q       H.                       Q
|
|  S  S S S Q       H              S  S S S Q        H
|--------------------------------|--------------------------------|
|--------------------------------|--------------------------------|
|--------------------------------|--------7-----------------------|
|---------5----------------------|------7-------------------------|
|-------5------------------------|-5--5---------------------------|
|--3--3--------------------------|--------------------------------|


  Em7
  E    S S S S S S E S S E    S S
|------7-----------7----------------|
|------------8---8--------------7---|
|--------7-------------7------------|
|----------9---9-----9--------9-----|
|-7---------------------------------|
|------------------------7----------|
|
| H.                     Q
|-----------------------------------|
|-----------------------------------|
|-----------------------------------|
|-5----------------------8b9--------|
|-7----------------------9b10-------|
|-----------------------------------|
| H.                     Q
|
| S  S S S Q       H
|-----------------------------------|
|-----------------------------------|
|-----------------------------------|
|--------2--------------------------|
|------2----------------------------|
|-0--0------------------------------|


  F#7                    Bm
                         Gtr I
  W                      Q  +S  S S  S  E          S  S   E   S S
                         |   |  | |  |  |          |  |   |   | |
                         /   /  / /  /  /          /  /   /   / /

                         Gtr V
                         ~~~~~~~~~~~~~~~~~~~~~~~~~~~~~~~~~~~~~~~~~~
  E S S S S S S  H       W
|----------------9-----|------------------------------------------|
|---------7------------|------------------------------------------|
|-----9-9-----9--------|-7----------------------------------------|
|---8-------8----------|-9----------------------------------------|
|-9--------------------|------------------------------------------|
|----------------------|------------------------------------------|
|                        W
|
|                        Gtr VI
| ~~                                               ~~~~~~~~~~~
| Q     E   E    Q  Q    Q   E.      S  S  S      +E     +Q
|----------------------|------------14-15-------------------------|
|----------------------|------------15-17-17b19==(17)---(17)r-----|
|-------------------6--|------------------18b19==(18)---(18)r-----|
|-8---------8----9--8--|------------------------------------------|
|-9---------9---10-----|------------------------------------------|
|----------------------|------------------------------------------|
  Q     E   E    Q  Q


  F#7
  E. S S  E  S  H
  |  | |  |  |  |
  /  / /  /  /  /

 ~~~~
  W
|------------------------------------|
|------------------------------------|
|-6----------------------------------|
|-8----------------------------------|
|------------------------------------|
|------------------------------------|
| W
|
|                          ~~~~~~~~~
| Q    E.    S  S  S      +E   +Q
|-----------14-14--------------------|
|-----------15-15-17b19==(17)-(17)r--|
|-----------------16b18==(16)-(16)r--|
|------------------------------------|
|------------------------------------|
|------------------------------------|


  Asus2
  Q  +S  E  S       E            S  S   E   E
  |   |  |  |       |            |  |   |   |
  /   /  /  /       /            /  /   /   /

  ~~~~~~~~~~~~~~~~~~~~~~~~~~~~~~~~~~~~~~~~~~~~~
  W
|---------------------------------------------|
|---------------------------------------------|
|-6-------------------------------------------|
|-7-------------------------------------------|
|---------------------------------------------|
|---------------------------------------------|
|
|                                ~~~~~~~~~~~
| Q   E.    S       S  +S       +E     +Q
|---------------------------------------------|
|----------16pb17==16r(16)b17==(16)---(16)r---|
|----------17pb18==17r(17)b18==(17)---(17)r---|
|---------------------------------------------|
|---------------------------------------------|
|---------------------------------------------|


  E9/G#
  E  S S +S  S E          H
  |  | |  |  | |          |
  /  / /  /  / /          /

 ~~~~
  H.                                        Q
|------------------------------------------------|
|------------------------------------------------|
|-4----------------------------------------------|
|-6----------------------------------------------|
|------------------------------------------------|
|-----------------------------------------------





Comments


Popular Eagles tabs & chords
Desperado Bass Tabs
I Cant Tell You Why 2 Bass Tabs
Sad Cafe Bass Tabs
Boys Of Summer Chords
One Day At A Time Chords
Heart Of The Matter Intro Tabs
New Kid In Town Tabs
Witchy Woman 2 Tabs
Earlybird Ukulele
Madnight Flyer Ukulele


Song lyrics



↑ Back to top | Tablatures and chords are parodies/interpretations of the original songs. You may use it for private study, scholarship, research or language learning purposes only
© 2014 AZChords.com Contact us | Privacy policy | DMCA | Add/correct tabs | Request tabs | Top 50 tabs