>
 >
Hotel California

Hotel California Guitar Tabs

Eagles - Hotel California chords, tabs, tablatures, lyrics

Guitar lessons | Add/correct | Request | Top 50 tabs Artists:  A B C D E F G H I J K L M N O P Q R S T U V W X Y Z 0-9

Hotel California Guitar Tabs – Eagles

CD, Sheet music, Poster

Do you like Hotel California? Share with your friends now
Bass TabsBass Tabs v2Bass Tabs v3ChordsChords v2Chords v3Chords v4Chords v5Chords v6Chords v7Chords v8Chords v9Drum TabsTabsTabs v2Tabs v10Tabs v11Tabs v12Tabs v3Tabs v4Tabs v5Tabs v6Tabs v7Tabs v8Tabs v9UkuleleUkulele v2
PROPS GO TO: GuG@

Eagles Hotel California


E|--------------------7--10--12--|------9----------9----------|   I
B|--7-----7-----7----------------|--11-----11-------------11--|   N
G|--7--7-----------7-----7---9---|--11---------11-----11------|   T
D|--9--------9-------------------|--8-------------------------|   R
A|--9----------------------------|----------------------------|   O
E|--7----------------------------|----------------------------|

E|--5-----5--5--7--5--------5--7--7-----|-----7-----7--------7--|
B|-----5-----------------5-----------7--|--7-----------7--------|
G|--------------------------------------|--7-----7--------7-----|
D|--7-----------------7--------7--------|-----------------------|
A|--------------------------------------|-----------------------|
E|--------------------------------------|-----------------------|

E|-----7-----7--------7-------------10--|
B|--8-----------8--------8--10^h12------|
G|--7-----7--------7--------------------|
D|--9-----------------------------------|
A|--------------------------------------|
E|--------------------------------------|

E|------10----------10----------10----------10------|
B|--10------------------------------10----------11--|
G|----------11--11------11--11----------------------|
D|--------------------------------------12----------|
A|--------------------------------------------------|
E|--------------------------------------------------|

E|-----7-----7--------7--7---------|------9------9----------9--|
B|--------------8--8--------8------|----------------11---------|
G|--9-----9--------------------9---|--11-----11---------11-----|
D|---------------------------------|---------------------------|
A|-----------------------------10--|--9------------------------|
E|---------------------------------|---------------------------|

E|--7--7-----10--------7--7-----------|------9----------9----------|
B|--7-----7------7--7--------7--------|--11-----11-------------11--|
G|--7---------------------------7^h9--|--11---------11-----11------|
D|--9--------9------------------------|--8-------------------------|
A|--9---------------------------------|----------------------------|
E|--7---------------------------------|----------------------------|

E|--5-----5--5--7--5--------5--7--7-----|--------------------7--|
B|-----5-----------------5-----------7--|--7--7-----------------|
G|--------------------------------------|--7-----7-----7--------|
D|--7-----------------7--------7--------|--9--------9-----9-----|
A|--------------------------------------|-----------------------|
E|--------------------------------------|-----------------------|

E|-----7-----7--------7-------------10--|
B|--8-----------8--------8--10^h12------|
G|--7-----7--------7--------------------|
D|--9-----------------------------------|
A|--------------------------------------|
E|--------------------------------------|

E|------10----------10------------------------------|
B|--10--------------------------10----------10------|
G|----------11--11------11--11------11--------------|
D|--------------------------------------12------12--|
A|--------------------------------------------------|
E|--------------------------------------------------|

E|-----7-----7--------7--7---------|------9------9----------9--|
B|--------------8--8--------8------|----------------11---------|
G|--9-----9--------------------9---|--11-----11---------11-----|
D|---------------------------------|---------------------------|
A|-----------------------------10--|--9------------------------|
E|---------------------------------|---------------------------|

(The INTRO is now repeated as the first half of verse 1 before the
chords take over)

SOLO
                         ~~~~~~
E|-----------------7--|--9b(10)-----------------------------|
B|----------7^h10-----|----------------~~-------------------|
G|--9b(11)------------|----------9^h11^p9--7--9--9b(11)--7--|
D|--------------------|-------------------------------------|
A|--------------------|-------------------------------------|
E|--------------------|-------------------------------------|

E|---------------------------------|
B|---------------------------------|
G|----~~~----------------~~~-------|
D|--7b(8)--9--9^p8^p7--7b(8)r(7)\--|
A|---------------------------------|
E|---------------------------------|

E|---------------------------------------------------------|
B|---------------------------------------------------------|
G|--7--9--9b(11)--7-------~~--7--9--9b(11)--7--------------|
D|-------------------9^p8^h9-------------------9^p7^h9^p7--|
A|---------------------------------------------------------|
E|---------------------------------------------------------|

E|-----------7--10--7-------------~~~~~--7-----10b(12)^^^
B|--10b(12)------------10^p7^h10--8b(9)-----7-----------|
G|------------------------------------------------------|
D|------------------------------------------------------|
A|------------------------------------------------------|
E|------------------------------------------------------|

        .
E|^^--10--10b(12)r(10)--7---------------10--------------(10)X--(10)X--|
B|-------------------------10--10b(12)------(12)r10--8----------------|
G|--------------------------------------------------------------------|
D|--------------------------------------------------------------------|
A|--------------------------------------------------------------------|
E|--------------------------------------------------------------------|

E|----------10------------------------|
B|------------------------------~-----|
G|--9b(11)------(11)r9^p7--7/6--7--7^^^
D|------------------------------------|
A|------------------------------------|
E|------------------------------------|

E|---------------------------------------------------------------------|
B|----------------------------------------  PH  --------------------~--|
G|^h9/12--11b(12)r11--9------9--11b(12)--11b(12)--11b(12)r11--9--7--9--|
D|-----------------------12--------------------------------------------|
A|---------------------------------------------------------------------|
E|---------------------------------------------------------------------|

E|-------------------------7-------------------|
B|----------7--10-------------7--------~~~~~~--|
G|--9b(11)---------9b(11)--------9^p7--9b(11)--|
D|---------------------------------------------|
A|---------------------------------------------|
E|---------------------------------------------|

E|-------------------------7----------7---------------------------------|
B|----------7--10------------------------7----------7-------------------|
G|--9b(11)---------9b(11)-----9b(11)--------9b(11)-----(11)r9^p7^h9^p7--|
D|----------------------------------------------------------------------|
A|----------------------------------------------------------------------|
E|----------------------------------------------------------------------|

E|----------------|--------------------------------------------------|
B|--~~~~~~--(7)/--|--9b(10)(then release 1/4)-----7------------------|
G|--9b(11)--------|----------------------------9-----7(bend up 1/4)--|
D|----------------|--------------------------------------------------|
A|----------------|--------------------------------------------------|
E|----------------|--------------------------------------------------|

E|--------------------------7------------------10----------------------|
B|-----10b(12)r10--10b(12)-----10^p7--10b(12)------10--12--11--10--9/--|
G|---------------------------------------------------------------------|
D|--9------------------------------------------------------------------|
A|---------------------------------------------------------------------|
E|---------------------------------------------------------------------|

E|-------------------12---------------17-----------------------|
B|-----------12--15------15--17b(19)------(19)r17--15--17--15--|
G|--14b(16)----------------------------------------------------|
D|-------------------------------------------------------------|
A|-------------------------------------------------------------|
E|-------------------------------------------------------------|

E|-----------14--16--17--17b(19)-----------~~--------------|
B|--17b(19)-----------------------(19)r17--15--17--17^p15--|
G|---------------------------------------------------------|
D|---------------------------------------------------------|
A|---------------------------------------------------------|
E|---------------------------------------------------------|

E|-----------17--17-----------~~~~~~~-------------------|
B|--17b(19)----------(19)r17--17b(19)--(19)r17^p15^h17--|
G|------------------------------------------------------|
D|------------------------------------------------------|
A|------------------------------------------------------|
E|------------------------------------------------------|

E|-----------17--17-----------~~~~~~~--14^^^^^^^^--17b(19)^^|
B|--17b(19)----------(19)r17--17b(19)-----------------------|
G|-------------------------------------19^p18^p16-----------|
D|----------------------------------------------------------|
A|----------------------------------------------------------|
E|----------------------------------------------------------|

E|^^(19)--------------------------------------------|------|
B|-----------------12-----------12------------------|--~~--|
G|--------15b(16)------15b(16)----------------------|--15--|
D|-----------------------------------16\12----------|------|
A|------------------------------------------14--13--|------|
E|--------------------------------------------------|------|

(bend from 12 to 14 and release gradually over the next 9 notes so that
the tenth is an E at the 12'th fret)

E|--12b(14)r(14)r(14)r(14)r(14)r(13)r(13)r(13)r(13)r12--12^p10------12--10--|
B|--------------------------------------------------------------12----------|
G|--------------------------------------------------------------------------|
D|--------------------------------------------------------------------------|
A|--------------------------------------------------------------------------|
E|--------------------------------------------------------------------------|

E|----------------------------------------------------|
B|--12--10----------------------------10\-------------|
G|----------(11)r9------9------9--11-------7--9b(11)--|
D|------------------12-----12-------------------------|
A|----------------------------------------------------|
E|----------------------------------------------------|

E|-----------------------------------------------------------|
B|--15^p12--14^p10--12^p8--10^p7--8--------------------------|
G|--------------------------------7--------------------------|
D|--16^p12--14^p11--12^p9--11^p7--9--0^h4-----------------0--|
A|-----------------------------------------5^h7^p5-----------|
E|--------------------------------------------------5^h7-----|

                                                     ~~  ~~  ~~
E|--14--12^p10--10^p9--10-~--|--~--~--~~--~~--|--~~--9---10--12--|
B|--15--10^^^^---------7--7--|--8--8--10--12--|--11--11--12--14--|
G|--14--11^^^^--11^p9--7--7--|--9--9--11--12--|--11--------------|
D|---------------------------|----------------|------------------|
A|---------------------------|----------------|------------------|
E|---------------------------|----------------|------------------|

E|--14--10------14--10------14--10------14--10------14--10-------|
B|--12--12--12--12--12--12--12--12--12--12--12--12--12--12--12\--|
G|---------------------------------------------------------------|
D|---------------------------------------------------------------|
A|---------------------------------------------------------------|
E|---------------------------------------------------------------|
                                    ~~
E|--12--9-------12--9-------12--9---18--|
B|--11--11--11--11--11--11--11--11--19--|
G|--------------------------------------|
D|--------------------------------------|
A|--------------------------------------|
E|--------------------------------------|

E|--12--9-------12--9-------12--9-------12--9-------12--9--------|
B|--10--10--10--10--10--10--10--10--10--10--10--10--10--10--10\--|
G|---------------------------------------------------------------|
D|---------------------------------------------------------------|
A|---------------------------------------------------------------|
E|---------------------------------------------------------------|
                               ~~
E|--10--7-----10--7-----10--7--16--|
B|--9---9--9--9---9--9--9---9--17--|
G|---------------------------------|
D|---------------------------------|
A|---------------------------------|
E|---------------------------------|

E|--10--7-----10--7-----10--7-----10--7-----10--7-----|
B|--8---8--8--8---8--8--8---8--8--8---8--8--8---8--8--|
G|----------------------------------------------------|
D|----------------------------------------------------|
A|----------------------------------------------------|
E|----------------------------------------------------|
                               ~~
E|--10--5-----10--5-----10--5--14--|
B|--7---7--7--7---7--7--7---7--15--|
G|---------------------------------|
D|---------------------------------|
A|---------------------------------|
E|---------------------------------|

E|-----------------------------------------------------|
B|--12--8-----12--8-----12--8-----12--8-----12--8------|
G|--9---9--9--9---9--9--9---9--9--9---9--9--9---9--9\--|
D|-----------------------------------------------------|
A|-----------------------------------------------------|
E|-----------------------------------------------------|

E|----------------------------------~~--|
B|--14--11------14--11------14--11--14--|
G|--11--11--11--11--11--11--11--11--14--|
D|--------------------------------------|
A|--------------------------------------|
E|--------------------------------------|    (fade....)
E|--14--10------14--10------14--10------14--10------14--10-------|
B|--12--12--12--12--12--12--12--12--12--12--12--12--12--12--12\--|
G|---------------------------------------------------------------|
D|---------------------------------------------------------------|
A|---------------------------------------------------------------|
E|---------------------------------------------------------------|
                                    ~~
E|--12--9-------12--9-------12--9---18--|
B|--11--11--11--11--11--11--11--11--19--|
G|--------------------------------------|
D|--------------------------------------|
A|--------------------------------------|
E|--------------------------------------|

E|--12--9-------12--9-------12--9-------12--9-------12--9--------|
B|--10--10--10--10--10--10--10--10--10--10--10--10--10--10--10\--|
G|---------------------------------------------------------------|
D|---------------------------------------------------------------|
A|---------------------------------------------------------------|
E|---------------------------------------------------------------|
                               ~~
E|--10--7-----10--7-----10--7--16--|
B|--9---9--9--9---9--9--9---9--17--|
G|---------------------------------|
D|---------------------------------|
A|---------------------------------|
E|---------------------------------|

E|--10--7-----10--7-----10--7-----10--7-----10--7-----|
B|--8---8--8--8---8--8--8---8--8--8---8--8--8---8--8--|
G|----------------------------------------------------|
D|----------------------------------------------------|
A|----------------------------------------------------|
E|----------------------------------------------------|
                               ~~
E|--10--5-----10--5-----10--5--14--|
B|--7---7--7--7---7--7--7---7--15--|
G|---------------------------------|
D|---------------------------------|
A|---------------------------------|
E|---------------------------------|

E|-----------------------------------------------------|
B|--12--8-----12--8-----12--8-----12--8-----12--8------|
G|--9---9--9--9---9--9--9---9--9--9---9--9--9---9--9\--|
D|-----------------------------------------------------|
A|-----------------------------------------------------|
E|-----------------------------------------------------|

E|----------------------------------~~--|
B|--14--11------14--11------14--11--14--|
G|--11--11--11--11--11--11--11--11--14--|
D|--------------------------------------|
A|--------------------------------------|
E|--------------------------------------|





Comments


Popular Eagles tabs & chords
Those Shoes 2 Bass Tabs
Hotel California 7 Chords
Love Will Keep Us Alive 1 Chords
Peacful Easy Feeling Chords
Dust In The Wind Intro Tabs
Earlybird 1 Tabs
On The Border Tabs
Victim Of Love 2 Tabs
Frail Grasp On The Big Picture Ukulele
How Long Ukulele


Song lyrics



↑ Back to top | Tablatures and chords are parodies/interpretations of the original songs. You may use it for private study, scholarship, research or language learning purposes only
© 2014 AZChords.com Contact us | Privacy policy | DMCA | Add/correct tabs | Request tabs | Top 50 tabs