» » »

Hitchhikers Guide To The Galaxy Movie Tabs (ver.1)

Artists:  A B C D E F G H I J K L M N O P Q R S T U V W X Y Z # 

Hitchhikers Guide To The Galaxy Movie Tabs (ver.1)

Eagles
Rating:
0/5 (0 votes)

Hard to play? Try these video lessons and learn fast.
                "(Intro)
(Theme)
Heres my guitar interpretation of the banjo intro theme to the film Hitchhikers Guide to 
Galaxy. I always loved this tune from the original eagles version "Journey of the 
used in the radio play. Though this is based on the film version.
Its a bit clunky, but hopefully some of you will enjoy it.


Standard tuning.
Capo on 3rd fret.

E---5-------------------1---------------------------0-------------------|
B---x--------3p1--0-----1--3p1-----1--0h1-----------1--3p1--1--0h1------|
G---2----------------2--2------------------2-----2--2-------------------|
D---2-------------------3---------------------4-----4-------------------|
A---0-------------------------------------------------------------------|
E---0-------------------------------------------------------------------|

E------------1---------------------------0-----0--0--0----------0-------|
B------------1--3p1-----1--0h1-----------1-----1--1--3p1-----1--0h1-----|
G---2-----2--2------------------2--------2-----2--2---------------------|
D------3-----3------------------------2---------------------------------|
A----------------------------------0------------------------------------|
E-----------------------------------------------------------------------|

E---------------0-----0--0--0----------0----------------0-----0--0------|
B------1--------1-----1--1--3p1-----1--0h1-----1--------1-----1--1------|
G---2--------2--2-----2--2------------------2--------2--2-----2--2------|
D---------3---------------------------------------4---------------------|
A-----------------------------------------------------------------------|
E-----------------------------------------------------------------------|

E---0----------0----------------0-----0--0--0----------0----------------|
B---3p1-----1--0h1-----1--------1-----1--1--3p1-----1--0h1-----1--------|
G-------------------2--------2--2-----2--2------------------2-----------|
D-------------------------3---------------------------------------0-----|
A-----------------------------------------------------------------------|
E-----------------------------------------------------------------------|

E----------------0--0--0----------0------------------------0--0--0------|
B-------1--------1--1--3p1-----1--0h1-----1-------1--------1--1--3------|
G----------2-----2--2------------------2-------------2-----2--2---------|
D---h2---------------------------------------2h3------------------------|
A-----------------------------------------------------------------------|
E-----------------------------------------------------------------------|

E-------------0------------------------0--0--0----------0---------------|
B---p1-----1--0h1-----1-------1--------1--1--3p1-----1--0h1-----1-------|
G------------------2-------------2-----2--2------------------2----------|
D------------------------3h4---------------------------------------4----|
A-----------------------------------------------------------------------|
E-----------------------------------------------------------------------|

E----------------0--0--0----------0----------------0-----0--0--0--------|
B-------1--------1--1--3p1-----1--0h1-----1--------1-----1--1--0--------|
G----------2-----2--2------------------2-----------0-----0--0--1--------|
D---p3------------------------------------------2--2-----2--2--2--------|
A--------------------------------------------3-----------3--3--2--------|
E--------------------------------------------------------------0--------|

E------0--0--0--0--0--------3-----2--------2--2--0--0--0-------0--------|
B------0--0--0--0--0--------3-----3--------3--3--3--3--1p0-----1--------|
G------1--1--1--1--1--------2-----2--------2--2--0--0--0----2--2--------|
D------2--2--2--2--2--------0-----0--------0--0--0--0--0----2--2--------|
A------2--2--2--2--2----------------------------------------0--0--------|
E------0--0--0--0--0----------------------------------------------------|


                                      (this bit I kind of threw in)
E---0--0-----3-----2--------2--2--0--0--------------------------3-------|
B---1--1-----3-----3--------3--3--3--3--1h0-----1h0-----1h0-----3-------|
G---2--2-----2-----2--------2--2--0--0-------2-------2----------2-------|
D---2--2-----0-----0--------0--0--0--0--------------------------0-------|
A-----------------------------------------------------------------------|
E-----------------------------------------------------------------------|

E---2--------2--2--0--0--0-------0-----0--0--0--0--0-----0--0----0------|
B---3--------3--3--3--3--1p0-----1-----1--1--1--1--3-----3--1h0--1------|
G---2--------2--2--0--0--0----2--2-----2--2--0--0--0-----0--0----2------|
D---0--------0--0--0--0--0----2--2-----2--2----------------------2------|
A-----------------------------0--0-------------------------------0------|
E-----------------------------------------------------------------------|

E------0--0--0--0--0-----3-----2--------2--2--0--0--0-------0-----0-----|
B------1--1--1--1--1-----3-----3--------3--3--3--3--1p0-----1-----1-----|
G------2--2--2--2--2-----2-----2--------2--2--0--0--0----2--2-----2-----|
D------2--2--2--2--2-----0-----0--------0--0--0--0--0----2--2-----2-----|
A------0--0--0--0--0-------------------------------------0--0-----------|
E-----------------------------------------------------------------------|

E---0-----3-----2--------2--2--0--0--------------------------3-----2----|
B---1-----3-----3--------3--3--3--3--1h0-----1h0-----1h0-----3-----3----|
G---2-----2-----2--------2--2--0--0-------2-------2----------2-----2----|
D---2-----0-----0--------0--0--0--0--------------------------0-----0----|
A-----------------------------------------------------------------------|
E-----------------------------------------------------------------------|

E---------2--2--0--0--0-------0-----0--0--0--0--0-----0--0----0---------|
B---------3--3--3--3--1p0-----1-----1--1--1--1--3-----3--1h0--1---------|
G---------2--2--0--0--0----2--2-----2--2--0--0--0-----0--0----2---------|
D---------0--0--0--0--0----2--2-----2--2----------------------2---------|
A--------------------------0--0-------------------------------0---------|
E-----------------------------------------------------------------------|
"            
Hard to play? Try these video lessons and learn fast. | Correct




comments powered by Disqus
↑ Back to top | Tablatures and chords are parodies/interpretations of the original songs. You may use it for private study, scholarship, research or language learning purposes only