» » »

Eagles, Heartache Tonight Tabs (ver.2)

Artists:  A B C D E F G H I J K L M N O P Q R S T U V W X Y Z # 

Heartache Tonight Tabs (ver.2)

Eagles Tabs
Rating:
0/5 (0 votes)
Heartache Tonight lessons Tabs too difficult? Try these video lessons and learn fast
                originally composed by don henley,glenn frey,bob seger,j.d souther


Bb = Bes = -6-8-8-7-6-X-
F = F = -X-8-10-10-10-X-
Gb = Ges = -2-4-4-3-2-X-
A = A = -X-0-2-2-2-0-
B = B = -X-2-4-4-4-X-
C = C = -X-3-5-5-5-X- of -X-3-2-0-1-0-
G = G = 3-5-5-4-3-3- -3-2-0-0-0-3-
C7 = C Zeven = -X-3-2-3-1-0-
G7 = G Zeven = -3-5-3-4-6-3-
Em = E Mineur = -0-2-2-0-0-0- of –X-X-X-4-5-3-
D = D = -X-X-0-2-3-2-
A7 = A Zeven = -5-7-5-6-5-5-
Ebm = -X-X-X-3-4-2-

--- - Fade Out
X   - Mute
D   - Downstrike
U   - Upstrike

Maat: 4/4



The Eagles - Heartache Tonight




Intro: Bb-F F-C | Gb-G--- |

N.C.
Somebody's gonna hurt someone before the night is through
N.C.
somebody's gonna come undone, there's nothing we can do.
Gb-G---              Em---         Gb-G---          Em---       
Everybody wants to touch somebody, if it takes all night.
Gb-G---             B-C                   Gb-G---          Db-D---
Everybody wants to take a little chance, make it come out right.

Refrein:
“C”
   D U  D U  D U  D U   D U  D U  D U  D U
e|--------------------|--------------------|
B|-1-1--1-1--1-1--1-1-|-1-1--1-1--1-1--1-1-|
G|-0-0--2-0--3-0--2-0-|-0-0--2-0--3-0--2-0-|
D|-2-2--X-X--X-X--X-X-|-2-2--X-X--X-X--X-X-|
A|-3-3--3-3--3-3--3-3-|-3-3--3-3--3-3--3-3-|
E|--------------------|--------------------|
“G”
   D U  D U  D U  D U   D U  D U  D U  D U
e|--------------------|--------------------|
B|-0-0--0-0--0-0--0-0-|-0-0--0-0--0-0--0-0-|
G|-0-0--0-0--0-0--0-0-|-0-0--0-0--0-0--0-0-|
D|-0-0--2-0--3-0--2-0-|-0-0--2-0--3-0--2-0-|
A|-X-X--X-X--X-X--X-X-|-X-X--X-X--X-X--X-X-|
E|-3-3--3-3--3-3--3-3-|-3-3--3-3--3-3--3-3-|
“C”
   D U  D U  D U  D U   D U  D U  D U  D U
e|--------------------|--------------------|
B|-1-1--1-1--1-1--1-1-|-1-1--1-1--1-1--1-1-|
G|-0-0--2-0--3-0--2-0-|-0-0--2-0--3-0--2-0-|
D|-2-2--X-X--X-X--X-X-|-2-2--X-X--X-X--X-X-|
A|-3-3--3-3--3-3--3-3-|-3-3--3-3--3-3--3-3-|
E|--------------------|--------------------|
“A”                   “D”
   D U  D U  D U  D U   D U  D U  D U  D U
e|--------------------|--------------------|
B|-2-2--2-2--2-2--2-2-|-3-3--3-3--3-3--3-3-|
G|-2-2--2-2--2-2--2-2-|-2-2--4-2--2-2--4-2-|
D|-2-2--4-2--2-2--4-2-|-0-0--0-0--0-0--0-0-|
A|-0-0--0-0--0-0--0-0-|--------------------|
E|--------------------|--------------------|

                   C                                       G
There's gonna be a heartache tonight, a heartache tonight I know.
                   C                                        A
There's gonna be a heartache tonight, a heartache tonight I know.
        D
Lord, I know.

Gb-G                  Ebm-Em      Gb-G                             Ebm-Em  
Some people like to stay out late, some folks can't hold out that long.
     Gb-G               B-C       Gb-G                  Db-D
But nobody wants to go home now, there's too much going on.
Gb-G                  Ebm-Em     Gb-G                  Ebm-Em             
This night is gonna last forever, last all, last all summer long,
Gb-G                  B-C         Gb-G                 Db-D
some time before the sun comes up the radio is gonna play that song.

There's gonna be a heartache tonight, a heartache tonight I know.
There's gonna be a heartache tonight, a heartache tonight I know.
Lord, I know.

                   G                      G7
There's gonna be a heartache tonight, the moon's shining bright,
   C7                      A7
so turn out the light, and we'll get it right,
                   G                    D                  G
there's gonna be a heartache tonight, a heartache tonight I know.

Solo: Bb-F F-C | Gb-G    | 3x
      Bb-F F-C | Gb-G--- |

N.C.
Somebody's gonna hurt someone before the night is through,
N.C.
somebody's gonna come undone, there's nothing we can do.
Gb-G---              Em---         Gb-G---          Em---       
Everybody wants to touch somebody, if it takes all night.
Gb-G---             B-C                   Gb-G---          Db-D---
Everybody wants to take a little chance, make it come out right.

There's gonna be a heartache tonight, a heartache tonight I know.
There's gonna be a heartache tonight, a heartache tonight I know,
once more.

       G                              G7
We can beat around the bushes, we can get down to the bone,    
       C7                             A7
we can leave it in a parking lot but either way                
                   G                    D                   G       C
there's gonna be a heartache tonight, a heartache tonight, I know.
              G                    D                    G
There'll be a heartache tonight, a heartache tonight, I know. 

Outro: Bb-F F-C | Gb-G    | 3x
       Bb-F F-C | Gb-G--- |
            
Submit corrections

comments powered by Disqus
↑ Back to top | Eagles Tabs for Heartache Tonight. Lyrics for acoustic guitar and electric guitar. Tablatures and chords are parodies/interpretations of the original songs. You may use it for private study, scholarship, research or language learning purposes only