>
 >
Greeks Dont Want No Freaks 1

Greeks Dont Want No Freaks 1 Guitar Tabs

Eagles - Greeks Dont Want No Freaks 1 chords, tabs, tablatures, lyrics

Guitar lessons | Add/correct | Request | Top 50 tabs Artists:  A B C D E F G H I J K L M N O P Q R S T U V W X Y Z 0-9

Greeks Dont Want No Freaks 1 Guitar Tabs – Eagles

CD, Sheet music, Poster

Do you like Greeks Dont Want No Freaks 1? Share with your friends now
Bass TabsTabsTabs v2
                             
-----------------------------------------------------------------------------
              The Greeks Don't Want No Freaks - The Eagles (GUITAR)
                       
-----------------------------------------------------------------------------

Tuning: Standard

=============================================================================

Guitar 1



     E  E  E  E  E  E  E  E     W                   E  E  E  E  E  E  E  E   
E||--------------------------|-------------------|--------------------------|
B||--------------------------|-------------------|--------------------------|
G||--------------------------|-------------------|--------------------------|
D||--------2--5--------0--3--|-------------------|--------2--5--------0--3--|
A||--3--3--------1--1--------|--3----------------|--3--3--------1--1--------|
E||--------------------------|-------------------|--------------------------|


  W                   E  E  E  E  E  E  E  E     E  E  E  E  E  E  E  E   
-------------------|--------------------------|--------------------------|
-------------------|--------------------------|--------------------------|
-------------------|--------------------------|--------------------------|
-------------------|--------2--5--------0--3--|--------2--5--------0--3--|
--3----------------|--3--3--------1--1--------|--3--3--------1--1--------|
-------------------|--------------------------|--------------------------|


  E  E  E  E  E  E  E  E     W                   H        H         
--------------------------|-------------------|--------------------|
--------------------------|-------------------|--------------------|
--------------------------|-------------------|--------------------|
--------2--5--------0--3--|-------------------|--5--------3--------|
--3--3--------1--1--------|--3----------------|--3--------1--------|
--------------------------|-------------------|--------------------|


  E  E  E  E  Q    Q       H        H           E  E  E  E  Q    Q     
------------------------|--------------------|------------------------|
------------------------|--------------------|------------------------|
------------------------|-----------5--------|------------------------|
--5--5--7--5--5---------|--5--------3--------|--5--5--7--5--5---------|
--3--3--3--3--3---------|--3-----------------|--3--3--3--3--3---------|
------------------------|--------------------|------------------------|


  Q    E  E  E  E  E  E     Q    E  E  E  E  E  E     Q    E  E  E  E  E  E   
-------------------------|-------------------------|-------------------------|
-------------------------|-------------------------|-------------------------|
-------------------------|-------------------------|--5----7-----5--5--7-----|
--5----7-----5--5--7-----|--3----5-----3--3--5-----|--3----5-----3--3--5-----|
--3----5-----3--3--5-----|--1----3-----1--1--3-----|-------------------------|
-------------------------|-------------------------|-------------------------|


  Q    E  E  Q    Q       E  E  E  E  E  E  E  E     E  E  E  E  E  E  E  E   
-----------------------|--------------------------|--------------------------|
-----------------------|--------------------------|--------------------------|
--7----9-----7---------|--------------------2--5--|--------------------2--5--|
--5----5-----5---------|--------2--5--3--3--------|--------2--5--3--3--------|
-----------------------|--3--3--------------------|--3--3--------------------|
-----------------------|--------------------------|--------------------------|


  E  E  E  E  E  E  E  E     E  E  E  E  E  E  E  E   
--------------------------|--------------------------|
--------------------------|--------------------------|
--------------------2--5--|--------------------2--5--|
--------2--5--3--3--------|--------2--5--3--3--------|
--3--3--------------------|--3--3--------------------|
--------------------------|--------------------------|


  E  E  E  E  E  E  E  E     E  E  E  E  E  E  E  E   
--------------------------|--------------------------|
--------------------------|--------------------------|
--------------------------|--------2--5--------2--5--|
--------2--5--------0--3--|--3--3--------3--3--------|
--3--3--------1--1--------|--------------------------|
--------------------------|--------------------------|


  E  E  E  E  E  E  E  E     E  E  E  E  E  E  E  E   
--------------------------|--------------------------|
--------------------------|--------------------------|
--------------------------|--------------------------|
--------2--5--------0--3--|-----5--5--5--5--5--5--5--|
--3--3--------1--1--------|-----5--5--5--5--5--5--5--|
--------------------------|-----3--3--3--3--3--3--3--|


  E  E  E  E  E  E  E  E     W                   E  E  E  E  E  E  E  E   
--------------------------|-------------------|--------------------------|
--------------------------|-------------------|--------------------------|
--------------------------|-------------------|--------------------------|
--------2--5--------0--3--|-------------------|--------2--5--------0--3--|
--3--3--------1--1--------|--3----------------|--3--3--------1--1--------|
--------------------------|-------------------|--------------------------|


  W                   E  E  E  E  E  E  E  E     E  E  E  E  E  E  E  E   
-------------------|--------------------------|--------------------------|
-------------------|--------------------------|--------------------------|
-------------------|--------------------------|--------------------------|
-------------------|--------2--5--------0--3--|--------2--5--------0--3--|
--3----------------|--3--3--------1--1--------|--3--3--------1--1--------|
-------------------|--------------------------|--------------------------|


  E  E  E  E  E  E  E  E     W                   H        H         
--------------------------|-------------------|--------------------|
--------------------------|-------------------|--------------------|
--------------------------|-------------------|--------------------|
--------2--5--------0--3--|-------------------|--5--------3--------|
--3--3--------1--1--------|--3----------------|--3--------1--------|
--------------------------|-------------------|--------------------|


  E  E  E  E  Q    Q       H        H           E  E  E  E  Q    Q     
------------------------|--------------------|------------------------|
------------------------|--------------------|------------------------|
------------------------|-----------5--------|------------------------|
--5--5--7--5--5---------|--5--------3--------|--5--5--7--5--5---------|
--3--3--3--3--3---------|--3-----------------|--3--3--3--3--3---------|
------------------------|--------------------|------------------------|


  Q    E  E  E  E  E  E     Q    E  E  E  E  E  E     Q    E  E  E  E  E  E   
-------------------------|-------------------------|-------------------------|
-------------------------|-------------------------|-------------------------|
-------------------------|-------------------------|--5----7-----5--5--7-----|
--5----7-----5--5--7-----|--3----5-----3--3--5-----|--3----5-----3--3--5-----|
--3----5-----3--3--5-----|--1----3-----1--1--3-----|-------------------------|
-------------------------|-------------------------|-------------------------|


  Q    E  E  Q    Q       E  E  E  E  E  E  E  E     E  E  E  E  E  E  E  E   
-----------------------|--------------------------|--------------------------|
-----------------------|--------------------------|--------------------------|
--7----9-----7---------|--------------------2--5--|--------------------2--5--|
--5----5-----5---------|--------2--5--3--3--------|--------2--5--3--3--------|
-----------------------|--3--3--------------------|--3--3--------------------|
-----------------------|--------------------------|--------------------------|


  E  E  E  E  E  E  E  E     E  E  E  E  E  E  E  E   
--------------------------|--------------------------|
--------------------------|--------------------------|
--------------------2--5--|--------------------2--5--|
--------2--5--3--3--------|--------2--5--3--3--------|
--3--3--------------------|--3--3--------------------|
--------------------------|--------------------------|


  E  E  E  E  E  E  E  E     E  E  E  E  E  E  E  E   
--------------------------|--------------------------|
--------------------------|--------------------------|
--------------------------|--------2--5--------2--5--|
--------2--5--------0--3--|--3--3--------3--3--------|
--3--3--------1--1--------|--------------------------|
--------------------------|--------------------------|


  E  E  E  E  E  E  E  E     E  E  E  E  E  E  E  E   
--------------------------|--------------------------|
--------------------------|--------------------------|
--------------------------|--------------------------|
--------2--5--------0--3--|-----5--5--5--5--5--5--5--|
--3--3--------1--1--------|-----5--5--5--5--5--5--5--|
--------------------------|-----3--3--3--3--3--3--3--|


  E  E  E  E  E  E  E  E     E  E  E  E  E  E  E  E   
--------------------------|--------------------------|
--------------------------|--------------------------|
--------------------2--5--|--------------------2--5--|
--------2--5--3--3--------|--------2--5--3--3--------|
--3--3--------------------|--3--3--------------------|
--------------------------|--------------------------|


  E  E  E  E  E  E  E  E     E  E  E  E  E  E  E  E   
--------------------------|--------------------------|
--------------------------|--------------------------|
--------------------2--5--|--------------------2--5--|
--------2--5--3--3--------|--------2--5--3--3--------|
--3--3--------------------|--3--3--------------------|
--------------------------|--------------------------|


  E  E  E  E  E  E  E  E     E  E  E  E  E  E  E  E   
--------------------------|--------------------------|
--------------------------|--------------------------|
--------------------------|--------2--5--------2--5--|
--------2--5--------0--3--|--3--3--------3--3--------|
--3--3--------1--1--------|--------------------------|
--------------------------|--------------------------|


  E  E  E  E  E  E  E  E     E  E  E  Q.     S  S E   
--------------------------|--------------------------|
--------------------------|--------------------------|
--------------------------|-----------5-----------5--|
--------2--5--------0--3--|-----------5------5h-7----|
--3--3--------1--1--------|--3--6--7-----------------|
--------------------------|--------------------------|


  E  E  E  E  E  E  E  E     E  E  E  Q.     S  S E   
--------------------------|--------------------------|
--------------------------|--------------------------|
--------------------------|-----------5-----------5--|
--------2--5--------0--3--|-----------5------5h-7----|
--3--3--------1--1--------|--3--6--7-----------------|
--------------------------|--------------------------|


  E  E  E  E  E  E  E  E     E  E  E  Q.     S  S E   
--------------------------|--------------------------|
--------------------------|--------------------------|
--------------------------|-----------5-----------5--|
--------2--5--------0--3--|-----------5------5h-7----|
--3--3--------1--1--------|--3--6--7-----------------|
--------------------------|--------------------------|


  E  E  E  E  E  E  E  E     E  E  E  Q.     S  S E   
--------------------------|--------------------------|
--------------------------|--------------------------|
--------------------------|-----------5-----------5--|
--------2--5--------0--3--|-----------5------5h-7----|
--3--3--------1--1--------|--3--6--7-----------------|
--------------------------|--------------------------|


  E  E  E  E  E  E  E  E     E  E  E  Q.     S  S E   
--------------------------|--------------------------|
--------------------------|--------------------------|
--------------------------|-----------5-----------5--|
--------2--5--------0--3--|-----------5------5h-7----|
--3--3--------1--1--------|--3--6--7-----------------|
--------------------------|--------------------------|


  E  E  E  E  E  E  E  E     E  E  E  Q.     S  S E   
--------------------------|--------------------------|
--------------------------|--------------------------|
--------------------------|-----------5-----------5--|
--------2--5--------0--3--|-----------5------5h-7----|
--3--3--------1--1--------|--3--6--7-----------------|
--------------------------|--------------------------|


  E  E  E  E  E  E  E  E     E  E  E  Q.     S  S E   
--------------------------|--------------------------|
--------------------------|--------------------------|
--------------------------|-----------5-----------5--|
--------2--5--------0--3--|-----------5------5h-7----|
--3--3--------1--1--------|--3--6--7-----------------|
--------------------------|--------------------------|


  E  E  E  E  E  E  E  E     E  E  E  Q.     S  S E   
--------------------------|--------------------------|
--------------------------|--------------------------|
--------------------------|-----------5-----------5--|
--------2--5--------0--3--|-----------5------5h-7----|
--3--3--------1--1--------|--3--6--7-----------------|
--------------------------|--------------------------|


  E  E  E  E  E  E  E  E     E  E  E  Q.     S  S E   
--------------------------|--------------------------|
--------------------------|--------------------------|
--------------------------|-----------5-----------5--|
--------2--5--------0--3--|-----------5------5h-7----|
--3--3--------1--1--------|--3--6--7-----------------|
--------------------------|--------------------------|


  E  E  E  E  E  E  E  E     E  E  E  Q.     S  S E                           
--------------------------|--------------------------|-----|-----|-----|-----|
--------------------------|--------------------------|-----|-----|-----|-----|
--------------------------|-----------5-----------5--|-----|-----|-----|-----|
--------2--5--------0--3--|-----------5------5h-7----|-----|-----|-----|-----|
--3--3--------1--1--------|--3--6--7-----------------|-----|-----|-----|-----|
--------------------------|--------------------------|-----|-----|-----|-----|


-----|-----||
-----|-----||
-----|-----||
-----|-----||
-----|-----||
-----|-----||




--------------------------------------------------------------
===============================================================
===============================================================


Guitar 2



     E  E  E  E  E  E  E  E     W                   E  E  E  E  E  E  E  E   
E||--------------------------|-------------------|--------------------------|
B||--------5--8--------3--6--|-------------------|--------5--8--------3--6--|
G||--5--5--------3--3--------|--5----------------|--5--5--------3--3--------|
D||--------------------------|-------------------|--------------------------|
A||--------------------------|-------------------|--------------------------|
E||--------------------------|-------------------|--------------------------|


  W                   E  E  E  E  E  E  E  E     E  E  E  E  E  E  E  E   
-------------------|--------------------------|--------------------------|
-------------------|--------5--8--------3--6--|--------5--8--------3--6--|
--5----------------|--5--5--------3--3--------|--5--5--------3--3--------|
-------------------|--------------------------|--------------------------|
-------------------|--------------------------|--------------------------|
-------------------|--------------------------|--------------------------|


  E  E  E  E  E  E  E  E     W                   H        H         
--------------------------|-------------------|--------------------|
--------5--8--------3--6--|-------------------|--------------------|
--5--5--------3--3--------|--5----------------|--------------------|
--------------------------|-------------------|--5--------3--------|
--------------------------|-------------------|--3--------1--------|
--------------------------|-------------------|--------------------|


  E  E  E  E  Q    Q       H        H           E  E  E  E  Q    Q     
------------------------|--------------------|------------------------|
------------------------|--------------------|------------------------|
------------------------|-----------5--------|------------------------|
--5--5--7--5--5---------|--5--------3--------|--5--5--7--5--5---------|
--3--3--3--3--3---------|--3-----------------|--3--3--3--3--3---------|
------------------------|--------------------|------------------------|


  E   E  Q     E  Q    E      E  E  E  E  E  E  E  E   
---------------------------|--------------------------|
---------------------------|--------------------------|
---------------------------|--------------------------|
-----10-------10-----------|-----8--------8--------8--|
-----10-------10-----------|-----8--------8--------8--|
-----------------------8s--|--6--------6--------------|


  E  E   E   H         E      E   E   E   H         E      Q    Q    Q    Q     
--------------------------|-----------------------------|----------------------|
------------10------------|--------------12---------L\--|----------------------|
------------10--------10--|--------------12---------L\--|------------5---------|
--8--9--10------------10--|--10--11--12-----------------|--5---------3---------|
--------------------------|-----------------------------|--3-------------------|
--------------------------|-----------------------------|----------------------|


  Q    Q    Q    Q       Q    Q    Q    Q       Q    Q    Q    Q     
----------------------|----------------------|----------------------|
----------------------|----------------------|----------------------|
------------5---------|------------5---------|------------5---------|
--5---------3---------|--5---------3---------|--5---------3---------|
--3-------------------|--3-------------------|--3-------------------|
----------------------|----------------------|----------------------|


  Q    Q    Q    Q       Q    Q    Q    Q       Q    Q    Q    Q     
----------------------|----------------------|----------------------|
----------------------|----------------------|----------------------|
----------------------|--5---------5---------|----------------------|
--5---------3---------|--3---------3---------|--5---------3---------|
--3---------1---------|----------------------|--3---------1---------|
----------------------|----------------------|----------------------|


  E  E  E  E  E  E  E  E     E  E  E  E  E  E  E  E     W                 
--------------------------|--------------------------|-------------------|
--------------------------|--------------------------|-------------------|
--------------------------|--------------------------|-------------------|
-----5--5--5--5--5--5--5--|--------2--5--------0--3--|-------------------|
-----5--5--5--5--5--5--5--|--3--3--------1--1--------|--3----------------|
-----3--3--3--3--3--3--3--|--------------------------|-------------------|


  E  E  E  E  E  E  E  E     W                   E  E  E  E  E  E  E  E   
--------------------------|-------------------|--------------------------|
--------------------------|-------------------|--------------------------|
--------------------------|-------------------|--------------------------|
--------2--5--------0--3--|-------------------|--------2--5--------0--3--|
--3--3--------1--1--------|--3----------------|--3--3--------1--1--------|
--------------------------|-------------------|--------------------------|


  E  E  E  E  E  E  E  E     E  E  E  E  E  E  E  E   
--------------------------|--------------------------|
--------------------------|--------------------------|
--------------------------|--------------------------|
--------2--5--------0--3--|--------2--5--------0--3--|
--3--3--------1--1--------|--3--3--------1--1--------|
--------------------------|--------------------------|


  Q    E   E   E   E   Q       H        H           E  E  E  E  Q    Q     
----------------------------|--------------------|------------------------|
-------8--10--10b--8--------|--------------------|------------------------|
-------8--10--10b--8---9----|--------------------|------------------------|
----------------------10----|--5--------3--------|--5--5--7--5--5---------|
----------------------------|--3--------1--------|--3--3--3--3--3---------|
----------------------------|--------------------|------------------------|


  H        H           E  E  E  E  Q    Q       E   E  Q     E  Q    E    
--------------------|------------------------|---------------------------|
--------------------|------------------------|---------------------------|
-----------5--------|------------------------|---------------------------|
--5--------3--------|--5--5--7--5--5---------|-----10-------10-----------|
--3-----------------|--3--3--3--3--3---------|-----10-------10-----------|
--------------------|------------------------|-----------------------8s--|


  E  E  E  E  E  E  E  E     E  E   E   H         E   
--------------------------|--------------------------|
--------------------------|------------10------------|
--------------------------|------------10--------10--|
-----8--------8--------8--|--8--9--10------------10--|
-----8--------8--------8--|--------------------------|
--6--------6--------------|--------------------------|


   E   E   E   H         E      Q    Q    Q    Q       Q    Q    Q    Q     
-----------------------------|----------------------|----------------------|
--------------12---------L\--|----------------------|----------------------|
--------------12---------L\--|------------5---------|------------5---------|
--10--11--12-----------------|--5---------3---------|--5---------3---------|
-----------------------------|--3-------------------|--3-------------------|
-----------------------------|----------------------|----------------------|


  Q    Q    Q    Q       Q    Q    Q    Q       Q    Q    Q    Q     
----------------------|----------------------|----------------------|
----------------------|----------------------|----------------------|
------------5---------|------------5---------|----------------------|
--5---------3---------|--5---------3---------|--5---------3---------|
--3-------------------|--3-------------------|--3---------1---------|
----------------------|----------------------|----------------------|


  Q    Q    Q    Q       Q    Q    Q    Q       E  E  E  E  E  E  E  E   
----------------------|----------------------|--------------------------|
----------------------|----------------------|--------------------------|
--5---------5---------|----------------------|--------------------------|
--3---------3---------|--5---------3---------|-----5--5--5--5--5--5--5--|
----------------------|--3---------1---------|-----5--5--5--5--5--5--5--|
----------------------|----------------------|-----3--3--3--3--3--3--3--|


  E  E  E  E  E  E  E  E     E  E  E  E  E  E  E  E   
--------------------------|--------------------------|
--------------------------|--------------------------|
--------------------2--5--|--------------------2--5--|
--------2--5--3--3--------|--------2--5--3--3--------|
--3--3--------------------|--3--3--------------------|
--------------------------|--------------------------|


  E  E  E  E  E  E  E  E     E  E  E  E  E  E  E  E   
--------------------------|--------------------------|
--------------------------|--------------------------|
--------------------2--5--|--------------------2--5--|
--------2--5--3--3--------|--------2--5--3--3--------|
--3--3--------------------|--3--3--------------------|
--------------------------|--------------------------|


  E  E  E  E  E  E  E  E     E  E  E  E  E  E  E  E   
--------------------------|--------------------------|
--------------------------|--------------------------|
--------------------------|--------2--5--------2--5--|
--------2--5--------0--3--|--3--3--------3--3--------|
--3--3--------1--1--------|--------------------------|
--------------------------|--------------------------|


  E  E  E   E  E  E  E  E     E  E  E  Q.     S  S E   
---------------------------|--------------------------|
---------------------------|--------------------------|
---------------------------|-----------5-----------5--|
---------------------------|-----------5------5h-7----|
--------7--10--------5--8--|-----6--7-----------------|
--8--8---------6--6--------|--8-----------------------|


  E  E  E   E  E  E  E  E     E  E  E  Q.     S  S E   
---------------------------|--------------------------|
---------------------------|--------------------------|
---------------------------|-----------5-----------5--|
---------------------------|-----------5------5h-7----|
--------7--10--------5--8--|-----6--7-----------------|
--8--8---------6--6--------|--8-----------------------|


  E  E  E   E  E  E  E  E     E  E  E  Q.     S  S E   
---------------------------|--------------------------|
---------------------------|--------------------------|
---------------------------|-----------5-----------5--|
---------------------------|-----------5------5h-7----|
--------7--10--------5--8--|-----6--7-----------------|
--8--8---------6--6--------|--8-----------------------|


  E  E  E   E  E  E  E  E     E  E  E  Q.     S  S E   
---------------------------|--------------------------|
---------------------------|--------------------------|
---------------------------|-----------5-----------5--|
---------------------------|-----------5------5h-7----|
--------7--10--------5--8--|-----6--7-----------------|
--8--8---------6--6--------|--8-----------------------|


  E  E  E   E  E  E  E  E     E  E  E  Q.     S  S E   
---------------------------|--------------------------|
---------------------------|--------------------------|
---------------------------|-----------5-----------5--|
---------------------------|-----------5------5h-7----|
--------7--10--------5--8--|-----6--7-----------------|
--8--8---------6--6--------|--8-----------------------|


  E  E  E   E  E  E  E  E     E  E  E  Q.     S  S E   
---------------------------|--------------------------|
---------------------------|--------------------------|
---------------------------|-----------5-----------5--|
---------------------------|-----------5------5h-7----|
--------7--10--------5--8--|-----6--7-----------------|
--8--8---------6--6--------|--8-----------------------|


  E  E  E   E  E  E  E  E     E  E  E  Q.     S  S E   
---------------------------|--------------------------|
---------------------------|--------------------------|
---------------------------|-----------5-----------5--|
---------------------------|-----------5------5h-7----|
--------7--10--------5--8--|-----6--7-----------------|
--8--8---------6--6--------|--8-----------------------|


  E  E  E   E  E  E  E  E     E  E  E  Q.     S  S E   
---------------------------|--------------------------|
---------------------------|--------------------------|
---------------------------|-----------5-----------5--|
---------------------------|-----------5------5h-7----|
--------7--10--------5--8--|-----6--7-----------------|
--8--8---------6--6--------|--8-----------------------|


  E  E  E   E  E  E  E  E     E  E  E  Q.     S  S E   
---------------------------|--------------------------|
---------------------------|--------------------------|
---------------------------|-----------5-----------5--|
---------------------------|-----------5------5h-7----|
--------7--10--------5--8--|-----6--7-----------------|
--8--8---------6--6--------|--8-----------------------|


  E  E  E   E  E  E  E  E     E  E  E  Q.     S  S E                           
---------------------------|--------------------------|-----|-----|-----|-----|
---------------------------|--------------------------|-----|-----|-----|-----|
---------------------------|-----------5-----------5--|-----|-----|-----|-----|
---------------------------|-----------5------5h-7----|-----|-----|-----|-----|
--------7--10--------5--8--|-----6--7-----------------|-----|-----|-----|-----|
--8--8---------6--6--------|--8-----------------------|-----|-----|-----|-----|


-----|-----||
-----|-----||
-----|-----||
-----|-----||
-----|-----||
-----|-----||




Duration Legend
---------------
W - whole
H - half
Q - quarter
E - 8th
S - 16th
T - 32nd
X - 64th
. - note dotted
|-n-|  - n-tuplets


Tablature Legend
----------------
L - tied note
x - dead note
g - grace note
(n) - ghost note
> - accentuded note
NH - natural harmonic
AH - artificial harmonic
TH - tapped harmonic
SH - semi harmonic
PH - pitch harmonic
h - hammer on
p - pull off
b - bend
br - bendRelease
pb - preBend
pbr - preBendRelease
brb - bendReleaseBend
\n/ - tremolo bar dip
\n - tremolo bar dive
-/n - tremolo bar Release up
/n\ - tremolo bar inverted dip
/n - tremolo bar return
-\n - tremolo bar Release down
S - shift slide
s - legato slide
/ -  slide into from below or out of upwards
\ -  slide into from above or out of downwards
~ - vibrato
W - wide vibrato
tr - trill
TP - tremolo picking
T - tapping
S - slap
P - pop
< - fade in
^ - brush up
v - brush down





Comments


Popular Eagles tabs & chords
Journey Of The Sorcerer Chords
Learn To Be Still 2 Chords
Do Something Tabs
Hotel California 3 Tabs
How Long 2 Tabs
Pretty Maids All In A Row Slide Tabs
Seven Bridges Road 1 Tabs
Take It Easy 2 Tabs
Try And Love Again Intro Tabs
Seven Bridges Ukulele


Song lyrics



↑ Back to top | Tablatures and chords are parodies/interpretations of the original songs. You may use it for private study, scholarship, research or language learning purposes only
© 2014 AZChords.com Contact us | Privacy policy | DMCA | Add/correct tabs | Request tabs | Top 50 tabs