» » »

Eagles, Good Day In Hell Tabs (ver.1)

Artists:  A B C D E F G H I J K L M N O P Q R S T U V W X Y Z # 

Good Day In Hell Tabs (ver.1)

Eagles Tabs
 Rating:
4/5 (4 votes)
Good Day In Hell lessons Tabs too difficult? Try these video lessons and learn fast
1
                Tuning: all guitars in standard tuning

*rhythm guitar(s) first followed by lead slide guitar on bottom of tab*

Key:
X = hit string

Rhythm guitar (best with bridge pickup)
E----------------------------------------------------------|
B----------------------------------------------------------|
G----------------------------------------------------------|
D---7---9---9---9---7---9---9---9--------------------------|
A---7---7---7---7---7---7---7---7--------------------------|
E---7---7---7---7---7---7---7---7--------------------------|
Continue until verse
(right after each chord, mute vibration with picking hand with
 force)


Funky "add on" guitar rhythm during intro
E-------7--------7-------7---------------------------------|
B-------7--------7-------7---------------------------------|
G----------------------------------------------------------|
D----------------------------------------------------------|
A----------------------------------------------------------|
E---7--------7-------7-------------------------------------|
             starts when drums start,
use thumb on base note,    repeat until nessisary


verse
E----------------------------------------------------------|
B----------------------------------------------------------|
G----------------------------------------------------------|
D---7---9---9---9---7---9---9---9--------------------------|
A---7---7---7---7---7---7---7---7--------------------------|
E---7---7---7---7---7---7---7---7--------------------------|

E----------------------------------------------------------|
B----------------------------------------------------------|
G----------------------------------------------------------|
D-------------7--9--9--9-----------------------------------|
A---7-7--9-9--7--7--7--7-----------------------------------|
E---5-5--7-7--7--7--7--7-----------------------------------|
*Repeat 1 time


pre-chorus
E----------------------------------------------------------|
B----------------------------------------------------------|
G---------------------9------------------------------------|
D--------9------------9------------------------------------|
A---7-7--9-------7-7--7------------------------------------|
E---5-5--7-------5-5--7------------------------------------|

E----------------------------------------------------------|
B----------------------------------------------------------|
G-------xxxx------xxxx-------------------------------------|
D-------xxxx------xxxx--9-9-9-9----------------------------|
A---7-7-xxxx--9-9-xxxx--7-7-7-7----------------------------|
E---5-5-xxxx--7-7-xxxx--7-7-7-7----------------------------|

chorus
E----------------------------------------------------------|
B----------------------------------------------------------|
G---------------7-7--9--9-9--------------------------------|
D---------------7-7--9--9-9--------------------------------|
A---7--9--9-9---5-5--7--7-7--------------------------------|
E---5--7--7-7---5-5--7--7-7--------------------------------|

E----------------------------------------------------------|
B----------------------------------------------------------|
G---9-9-xxxx--7-7-xxxx-------------------------------------|
D---9-9-xxxx--7-7-xxxx--9--9--9--9-------------------------|
A---7-7-xxxx--5-5-xxxx--9--9--9--9-------------------------|
E-----------------------7--7--7--7-------------------------|

**********************SLIDE GUITAR*************************
MUST HAVE GUITAR SLIDE TO PLAY THIS!!!

Key:
/ = slide up
\ = slide down

note: This was hard to figure out, so some of it could be
      inaccurate. If you find mistakes, please tell me about
      them. I only did the intro of the song, because it can
      get a little repetitive. During the chorus the slide guitar
      just plays notes inside of the chords that the rhythm guitar
      is doing. Hopefully this will get you started.

Intro
E----------------------------------------------------------|
B----------------------------------------------------------|
G----------------------------------------------------------|
D------9-----9\----------12-10--9\7---7/9------------------|
A---/9---------------/9-----------------------/9\7\5-------|
E----------------------------------------------------------|

E----------------------------------------------------------|
B----------------------------------------------------------|
G----------------------------------------------------------|
D------9-----9/----------12-10--9\7---7/9------------------|
A---/9---------------/9------------------------------------|
E-------------------------------------------7\-------------|

E----------------------------------------------------------|
B----------------------------------------------------------|
G----------------------------------------------------------|
D---/9----12-12-12--10-10-10-------------------------------|
A------9---------------------------------------------------|
E----------------------------------------------------------|
            
Submit corrections

comments powered by Disqus
↑ Back to top | Eagles Tabs for Good Day In Hell. Lyrics for acoustic guitar and electric guitar. 1 Tablatures and chords are parodies/interpretations of the original songs. You may use it for private study, scholarship, research or language learning purposes only