» » »

Get Over It Bass tabs (ver.1)

Artists:  A B C D E F G H I J K L M N O P Q R S T U V W X Y Z # 

Get Over It Bass tabs (ver.1)

Eagles
Rating:
0/5 (0 votes)

Hard to play? Try these video lessons and learn fast.
                
GET OVER IT (Bassline)
As recorded by The Eagles




 

 

Gtr I (D A D G) - 'Staff'


  Q=165
 4/4
  Gtr I
  W          W          W          W
|----------|----------|----------|------|
|----------|----------|----------|------|
|----------|----------|----------|------|
|----------|----------|----------|------|


  W          W          W          W
|----------|----------|----------|------|
|----------|----------|----------|------|
|----------|----------|----------|------|
|----------|----------|----------|------|


  W          W          W          W
|----------|----------|----------|------|
|----------|----------|----------|------|
|----------|----------|----------|------|
|----------|----------|----------|------|


  W          W          W          W
|----------|----------|----------|------|
|----------|----------|----------|------|
|----------|----------|----------|------|
|----------|----------|----------|------|


  E E E E E E E E   E E E E E E E E   E E E E E E E E   E E E E E E E E
|-----------------|-----------------|-----------------|-----------------|
|-----------------|---------------0-|-0-0-0-0-0-0-0-0-|-0-0-0-0---------|
|-----------------|-----------0-2---|-----------------|---------3-2-0---|
|-0-0-0-0-0-0-0-0-|-0-0-0-0-4-------|-----------------|---------------0-|


  E E E E E E E E   E E E E E E E E   E E E E E E E E   E E Q  H
|-----------------|-----------------|-----------------|-------------|
|-----------------|---------------0-|-0-0-0-0---------|-------------|
|-----------------|-----------0-2---|---------3-2-0---|-------------|
|-0-0-0-0-0-0-0-0-|-0-0-0-0-4-------|---------------0-|-0-----------|


  E E E E E E E E   E E E E E E E E   E E E E E E E E   E E E E E E E E
|-----------------|-----------------|-----------------|-----------------|
|-----------------|---------------0-|-0-0-0-0-0-0-0-0-|-0-0-0-0---------|
|-----------------|-----------0-2---|-----------------|---------3-2-0---|
|-0-0-0-0-0-0-0-0-|-0-0-0-0-4-------|-----------------|---------------0-|


  E E E E E E E E   E E E E E E E E   E E E E E E E E   E E E E E E E E
|-----------------|-----------------|-----------------|-----------------|
|-----------------|---------------0-|-0-0-0-0-0-0-0-0-|-0-0-0-0---------|
|-----------------|-----------0-2---|-----------------|---------3-2-0---|
|-0-0-0-0-0-0-0-0-|-0-0-0-0-4-------|-----------------|---------------0-|


  E E E E E E E E   E E E E E E E E   E E E E E E E E   E E E E E E E E
|-----------------|-----------------|-----------------|-----------------|
|-----------------|-----------------|-----------------|-----------------|
|-----------------|-----------------|-----------------|-----------------|
|-5-5-5-5-5-5-5-5-|-5-5-5-5-5-5-5-5-|-7-7-7-7-7-7-7-7-|-7-7-5-5-4-4-2-2-|


  E E E E E E E E   E E E E E E E E   E E E E E E E E   E E E E E E E E
|-----------------|-----------------|-----------------|-----------------|
|-----------------|-----------------|-----------------|-----------------|
|-----------------|-----------------|-----------------|-----------------|
|-0-0-0-0-0-0-0-0-|-0-0-0-0-0-0-0-0-|-3-3-3-3-3-3-3-3-|-3-3-3-3-3-3-3-3-|


  E E E E E E E E   E E E E E E E E   E E E E E E E E   E E E E E E E E
|-----------------|-----------------|-----------------|-----------------|
|-----------------|-----------------|-----------------|-----------------|
|-----------------|-----------------|-5-5-5-5-5-5-5-5-|-5-5-2-2-3-3-4-4-|
|-5-5-5-5-5-5-5-5-|-5-5-5-5-5-5-5-5-|-----------------|-----------------|


  E E E E E E E E   E E E E E E E E   E E E E E E E E   E E E E E E E E
|-----------------|-----------------|-----------------|-----------------|
|-----------------|-----------------|-----------------|-----------------|
|-----------------|-----------------|-----------------|-----------------|
|-0-0-0-0-0-0-0-0-|-0-0-0-0-0-0-0-0-|-3-3-3-3-3-3-3-3-|-3-3-3-3-3-3-3-3-|


  E E E E E E E E   E E E E E E E E   E E E E E E E E   E E Q  H
|-----------------|-----------------|-----------------|-------------|
|-----------------|-----------------|-----------------|-------------|
|-----------------|-----------------|-----------------|-------------|
|-5-5-5-5-5-5-5-5-|-5-5-5-5-5-5-5-5-|-0-0-0-0-0-0-0-0-|-0-----------|


  E E E E E E E E   E E E E E E E E   E E E E E E E E   E E E E E E E E
|-----------------|-----------------|-----------------|-----------------|
|-----------------|---------------0-|-0-0-0-0-0-0-0-0-|-0-0-0-0---------|
|-----------------|-----------0-2---|-----------------|---------3-2-0---|
|-0-0-0-0-0-0-0-0-|-0-0-0-0-4-------|-----------------|---------------0-|


  E E E E E E E E   E E E E E E E E   E E E E E E E E   E E E E E E E E
|-----------------|-----------------|-----------------|-----------------|
|-----------------|---------------0-|-0-0-0-0-0-0-0-0-|-0-0-0-0---------|
|-----------------|-----------0-2---|-----------------|---------3-2-0---|
|-0-0-0-0-0-0-0-0-|-0-0-0-0-4-------|-----------------|---------------0-|


  E E E E E E E E   E E E E E E E E   E E E E E E E E   E E E E E E E E
|-----------------|-----------------|-----------------|-----------------|
|-----------------|-----------------|-----------------|-----------------|
|-----------------|-----------------|-----------------|-----------------|
|-5-5-5-5-5-5-5-5-|-5-5-5-5-5-5-5-5-|-7-7-7-7-7-7-7-7-|-7-7-5-5-4-4-2-2-|


  E E E E E E E E   E E E E E E E E   E E E E E E E E   E E E E E E E E
|-----------------|-----------------|-----------------|-----------------|
|-----------------|-----------------|-----------------|-----------------|
|-----------------|-----------------|-----------------|-----------------|
|-0-0-0-0-0-0-0-0-|-0-0-0-0-0-0-0-0-|-3-3-3-3-3-3-3-3-|-3-3-3-3-3-3-3-3-|


  E E E E E E E E   E E E E E E E E   E E E E E E E E   E E E E E E E E
|-----------------|-----------------|-----------------|-----------------|
|-----------------|-----------------|-----------------|-----------------|
|-----------------|-----------------|-5-5-5-5-5-5-5-5-|-5-5-2-2-3-3-4-4-|
|-5-5-5-5-5-5-5-5-|-5-5-5-5-5-5-5-5-|-----------------|-----------------|


  E E E E E E E E   E E E E E E E E   E E E E E E E E   E E E E E E E E
|-----------------|-----------------|-----------------|-----------------|
|-----------------|-----------------|-----------------|-----------------|
|-----------------|-----------------|-----------------|-----------------|
|-0-0-0-0-0-0-0-0-|-0-0-0-0-0-0-0-0-|-3-3-3-3-3-3-3-3-|-3-3-3-3-3-3-3-3-|


  E E E E E E E E   E E E E E E E E   E E E E E E E E   E E E E E E E E
|-----------------|-----------------|-----------------|-7-----5-----4---|
|-----------------|-----------------|-----------------|-----------------|
|-----------------|-----------------|-5-5-5-5-5-5-5-5-|---5-5---5-5---5-|
|-5-5-5-5-5-5-5-5-|-5-5-5-5-5-5-5-5-|-----------------|-----------------|


  E E E E E E E E   E E E E E E E E   E E E E E E E E   E E E E E E E E
|-----------------|-----------------|-----------------|-----------------|
|-----------------|-----------------|-----------------|-----------------|
|-5-5-5-5-5-5-5-5-|-5-5-5-5-5-5-5-5-|-----------------|-----------------|
|-----------------|-----------------|-3-3-3-3-3-3-3-3-|-3-3-3-3-3-3-3-3-|


  E E E E E E E E   E E E E E E E E   E E E E E E E E   E E +S  S E Q  E E
|-----------------|-----------------|-----------------|---------------------|
|-----------------|-----------------|-----------------|---------------------|
|-----------------|-----------------|-5-5-5-5-5-5-5-5-|---5-(5)-----5--5-5--|
|-5-5-5-5-5-5-5-5-|-5-5-5-5-5-5-5-5-|-----------------|-0-------------------|


  W          +H     +Q   E E   +E  E Q  Q  Q    W
|----------|-----------------|----------------|------|
|----------|-----------------|----------------|------|
|-3--------|-(3)----(3)----3-|-(3)-5-5--5-----|------|
|----------|-----------------|----------------|------|


  W          +H     +H       E E +S  S E E E E E   E E +S  S E E E E E
|----------|---------------|---------------------|---------------------|
|----------|---------------|---------------------|---------------------|
|-3--------|-(3)----(3)----|---------------------|---------------------|
|----------|---------------|-6-7-(7)---7-7-7-7-7-|-6-7-(7)---7-7-7-7-7-|


  E E E E E E E E   E E E E E E E E   E E E E E E E E   E E E E E E E E
|-----------------|-----------------|-----------------|-----------------|
|-----------------|-----------------|-----------------|---------------0-|
|-----------------|-----------------|-----------------|-----------0-2---|
|-6-7-7-7-6-7-7-7-|-6-7-7-7-7-7-7-7-|-0-0-0-0-0-0-0-0-|-0-0-0-0-4-------|


  E E E E E E E E   E E E E E E E E   E E E E E E E E   E E E E E E E E
|-----------------|-----------------|-----------------|-----------------|
|-0-0-0-0-0-0-0-0-|-0-0-0-0---------|-----------------|---------------0-|
|-----------------|---------3-2-0---|-----------------|-----------0-2---|
|-----------------|---------------0-|-0-0-0-0-0-0-0-0-|-0-0-0-0-4-------|


  E E E E E E E E   E E E E E E E E   E E E E E E E E   E E E E E E E E
|-----------------|-----------------|-----------------|-----------------|
|-0-0-0-0-0-0-0-0-|-0-0-0-0---------|-----------------|-----------------|
|-----------------|---------3-2-0---|-----------------|-----------------|
|-----------------|---------------0-|-5-5-5-5-5-5-5-5-|-5-5-5-5-5-5-5-5-|


  E E E E E E E E   E E E E E E E E   E E E E E E E E   E E E E E E E E
|-----------------|-----------------|-----------------|-----------------|
|-----------------|-----------------|-----------------|-----------------|
|-----------------|-----------------|-----------------|-----------------|
|-7-7-7-7-7-7-7-7-|-7-7-5-5-4-4-2-2-|-0-0-0-0-0-0-0-0-|-0-0-0-0-0-0-0-0-|


  E E E E E E E E   E E E E E E E E   E E E E E E E E   E E E E E E E E
|-----------------|-----------------|-----------------|-----------------|
|-----------------|-----------------|-----------------|-----------------|
|-----------------|-----------------|-----------------|-----------------|
|-3-3-3-3-3-3-3-3-|-3-3-3-3-3-3-3-3-|-5-5-5-5-5-5-5-5-|-5-5-5-5-5-5-5-5-|


  E E E E E E E E   E E E E E E E E   E E E E E E E E   E E E E E E E E
|-----------------|-----------------|-----------------|-----------------|
|-----------------|-----------------|-----------------|-----------------|
|-5-5-5-5-5-5-5-5-|-5-5-2-2-3-3-4-4-|-----------------|-----------------|
|-----------------|-----------------|-0-0-0-0-0-0-0-0-|-0-0-0-0-0-0-0-0-|


  E E E E E E E E   E E E E E E E E   E E E E E E E E   E E E E E E E E
|-----------------|-----------------|-----------------|-----------------|
|-----------------|-----------------|-----------------|-----------------|
|-----------------|-----------------|-----------------|-----------------|
|-3-3-3-3-3-3-3-3-|-3-3-3-3-3-3-3-3-|-5-5-5-5-5-5-5-5-|-5-5-5-5-5-5-5-5-|


  E E Q  H      W          E E E E E E E E   E E E E E E E E
|-------------|----------|-----------------|-----------------|
|-------------|----------|-----------------|-----------------|
|-5-----------|----------|-----------------|-----------------|
|-------------|----------|-0-0-0-0-0-0-0-0-|-0-0-0-0-0-0-0-0-|


  E E E E E E E E   E E E E E E E E   E E E E E E E E   E E E E E E E E
|-----------------|-----------------|-----------------|-----------------|
|-----------------|-----------------|-----------------|-----------------|
|-----------------|-----------------|-----------------|-----------------|
|-3-3-3-3-3-3-3-3-|-3-3-3-3-3-3-3-3-|-5-5-5-5-5-5-5-5-|-5-5-5-5-5-5-5-5-|


  E E E E E E E E   E E E E E E E E   E E E E E E E E   E E E E E E E E
|-----------------|-----------------|-----------------|-----------------|
|-----------------|-----------------|-----------------|-----------------|
|-5-5-5-5-5-5-5-5-|---5-5-5-5-5-2-0-|-----------------|-----------------|
|-----------------|-----------------|-0-0-0-0-0-0-0-0-|-0-0-0-0-0-0-0-0-|


  E E E E E E E E   E E E E E E E E   E E E E E E E E   E E E E E E E E
|-----------------|-----------------|-----------------|-----------------|
|-----------------|-----------------|-----------------|-----------------|
|-----------------|-----------------|-----------------|-----------------|
|-3-3-3-3-3-3-3-3-|-3-3-3-3-3-3-3-3-|-5-5-5-5-5-5-5-5-|-5-5-5-5-5-5-5-5-|


  E E Q  H      E E E E +H       +W           +H     +H
|-------------|----------------|------------|---------------|
|-------------|-7-5-3----------|------------|---------------|
|-5-----------|----------------|------------|---------------|
|-------------|-------0-(0)----|-(0)--------|-(0)----(0)----|


  Q..   S H
|--------------*|
|--------------*|
|-5------------*|
|--------------*|




--------------------------------------------------------------------------------


Duration Legend
---------------
W - whole; H - half; Q - quarter; E - 8th; S - 16th; T - 32nd; X - 64th; a - acciaccatura
+ - note tied to previous; . - note dotted; .. - note double dotted
Uncapitalized letters represent notes that are staccato (1/2 duration)
Irregular groupings are notated above the duration line
Duration letters will always appear directly above the note/fret number it represents the
duration for.  Duration letters with no fret number below them represent rests.  Multi-
bar rests are notated in the form Wxn, where n is the number of bars to rest for.  Low
melody durations appear below the staff

Tablature Legend
----------------
 h   - hammer-on
 p   - pull-off
 b   - bend
 pb  - pre-bend
 r   - bend release (if no number after the r, then release immediately)
 /\  - slide into or out of (from/to "nowhere")
 s   - legato slide
 S   - shift slide
 - natural harmonic
[n]  - artificial harmonic
n(n) - tapped harmonic
 ~   - vibrato
 tr  - trill
 T   - tap
 TP  - trem. picking
 PM  - palm muting
\n/  - tremolo bar dip; n = amount to dip
 \n  - tremolo bar down
 n/  - tremolo bar up
/n\  - tremolo bar inverted dip
 =   - hold bend; also acts as connecting device for hammers/pulls
 <> - volume swell (louder/softer)
 x   - on rhythm slash represents muted slash
 o   - on rhythm slash represents single note slash

Misc Legend
-----------
 |  - bar
||  - double bar
||o - repeat start
o|| - repeat end
*|  - double bar (ending)
 :  - bar (freetime)
 $  - Segno
 &  - Coda
Tempo markers -  = BPM(8/16=s8/s16), where s8 = swing 8ths, s16 = swing 16ths



--------------------------------------------------------------------------------
            
Hard to play? Try these video lessons and learn fast. | Correct




comments powered by Disqus
↑ Back to top | Tablatures and chords are parodies/interpretations of the original songs. You may use it for private study, scholarship, research or language learning purposes only