» » »

Do Something Tabs (ver.1)

Artists:  A B C D E F G H I J K L M N O P Q R S T U V W X Y Z # 

Do Something Tabs (ver.1)

Eagles
Rating:
5/5 (2 votes)

Hard to play? Try these video lessons and learn fast.
                Basic chords are A9, D9, Bm7, Esus and E.

Intro:

  A9                D9               Bm7                 Esus             E
e|------------------|--------0------|--------------------|-------------------|
B|-------------2----|-----------3---|------------3--2--0-|-------------------|
G|----------4-------|------2--------|---------2----------|---------2------1--|
D|-------2----------|---4-----------|------4-------------|-------------------|
A|----0-------------|---0-----------|---2----------------|-----2-------2-----|
E|------------------|---------------|--------------------|--0----------------|

Use the intro as a model for the verses.


The little riffs after 'do something' are:


thing...                  Do something...
e|---------------------------------------------------------------------------|
B|------5--------------------------------10----------------------------------|
G|------4h6--4------4---2-----------------9h11--9-------9----7---------------|
D|--------------7---6---4--------------------------12---11---9---------------|
A|---------------------------------------------------------------------------|
E|---------------------------------------------------------------------------|
            
Hard to play? Try these video lessons and learn fast. | Correct




comments powered by Disqus
↑ Back to top | Tablatures and chords are parodies/interpretations of the original songs. You may use it for private study, scholarship, research or language learning purposes only