» » »

Desparado Bass tabs (ver.1)

Artists:  A B C D E F G H I J K L M N O P Q R S T U V W X Y Z # 

Desparado Bass tabs (ver.1)

Eagles
Rating:
0/5 (0 votes)

Hard to play? Try these video lessons and learn fast.
                
Tuning: 1 whole step down (for those who don't know what that means...      D, G, C, F)

Notes:  Well I have some.  First off, the bass enters like 1 min. into the song, and
even play the entire song.  Basically, the song is all piano!  The bass enters at the
"Don't you draw the Queen of diamonds boy...".  The bass line is really simple and VERY 
 It is easy, and fun.  Any Questions, don't be afraid to ask.  Send me a PM or an


DESPARADO

(piano plays)
(singer enters) Desparado...

(Bass enters)
Don't you draw the Queen of daimonds boy...
||--------|----2-1-|--------|2---2-1-|---------|----2-1-|--------|--------|
||4-------|0-------|4---0---|--------|4--------|0-------|4-------|2---2---|
||----4---|--------|--------|--------|---234---|--------|----2---|--------|
||--------|--------|--------|--------|---------|--------|--------|--------|
  1 2 3 4  1 2 3 4  1 2 3 4  1 2 3 4  1 2&a3 4  1 2 3 4  1 2 3 4  1 2 3 4

|2-------|--------|2-1-----|--------|2-------|--------|2-1-----|----2---|
|--------|0---0---|----4---|----2---|--------|0---0---|----4---|--2-----|
|----2-4-|--------|--------|2-------|----2-4-|--------|--------|2-------|
|--------|--------|--------|--------|--------|--------|--------|--------|
 1 2 3 4  1 2 3 4  1 2 3 4  1 2 3 4  1 2 3 4  1 2 3 4  1 2 3 4  1 2 3 4

|1---|--------|----2-1-|--------|2--2-2-1-|---------|--------|----------|
|----|4-------|0-------|4---0---|----2----|4--------|0-------|----------|
|----|----4--4|--------|--------|---------|---234---|----0---|2-----2345|
|----|--------|--------|--------|---------|---------|--------|----------|
 1 2  1 2 3 4& 1 2 3 4  1 2 3 4  1 2&a3 4  1 2&a3 4  1 2 3 4  1 2 3 4e&a

|--------|2-------|--------|2-1-----|--------|2-------|--------|2-1-----|
|2---2---|--------|0---0---|----4---|----2---|--------|0---0---|----4-2-|
|--------|----2-4-|--------|--------|2-------|----2-4-|--------|--------|
|--------|--------|--------|--------|--------|--------|--------|--------|
 1 2 3 4  1 2 3 4  1 2 3 4  1 2 3 4  1 2 3 4  1 2 3 4  1 2 3 4  1 2 3 4

            (Right here it begins to slow down, watch out for it!)
|--------|--------||
|0-------|2-3-4---||  (Here to end, Piano solo!)
|--4-2---|--------||  (In other words, end of song for bass.)
|--------|--------||
 1 2 3 4  1 2 3 4

Here is what I heard.  As I stated before, let me know if you have any questions.  If
belive there are any mistakes, PM or e-mail me!  Thanks and Have Fun!!
            
Hard to play? Try these video lessons and learn fast. | Correct




comments powered by Disqus
↑ Back to top | Tablatures and chords are parodies/interpretations of the original songs. You may use it for private study, scholarship, research or language learning purposes only