>
 >
Center Of The Universe

Center Of The Universe Guitar Tabs

Eagles - Center Of The Universe chords, tabs, tablatures, lyrics

Guitar lessons | Add/correct | Request | Top 50 tabs Artists:  A B C D E F G H I J K L M N O P Q R S T U V W X Y Z 0-9

Center Of The Universe Guitar Tabs – Eagles

CD, Sheet music, Poster

Do you like Center Of The Universe? Share with your friends now
Tabs
  song's structure:

  Intro:(I)
  verse:(I)(II)
  Chorus:(I)2x
  verse:(I), (II)2x
  Chorus:(I)2x
  Solo
  Chorus:(I)2x

   (I)

     Gm6
e|----------------0---------------------------------------------------------|
B|---------------------3-------------------------3--------------------------|
G|-------3---------------------3---------3-----------3----------------------|
D|-----------0-------------0----------------0--------------0----------------|
A|--------------------------------------------------------------------------|
E|----3-----------------------------3---------------------------------------|

     Dsus2/F#
e|-------------------0------------------------------------------------------|
B|-----------------------3------------------------3-------------------------|
G|---------2--------------------2---------2------------2--------------------|
D|-------------0-------------0----------------0-------------0---------------|
A|--------------------------------------------------------------------------|
E|----2-------------------------------2-------------------------------------|

     Gm6
e|----------------0---------------------------------------------------------|
B|---------------------3-------------------------3--------------------------|
G|-------3---------------------3---------3-----------3----------------------|
D|-----------0-------------0----------------0-------------0-----------------|
A|--------------------------------------------------------------------------|
E|----3-----------------------------3---------------------------------------|

    Dsus2/F
e|-------------------0------------------------------------------------------|
B|-----------------------3------------------------3-------------------------|
G|---------2--------------------2---------2------------2--------------------|
D|-------------0-------------0----------------0-------------0---------------|
A|--------------------------------------------------------------------------|
E|----1-------------------------------1-------------------------------------|


   (II)

      Bb
e|--------------------------------------------------------------------------|
B|---------------3------------3-------------3-------------------------------|
G|---------3---------0---------------3-----------3--------------------------|
D|------------3-----------3-------------3------------3----------------------|
A|----1--------------------------2------------------------------------------|
E|--------------------------------------------------------------------------|

      F
e|--------------------------------------------------------------------------|
B|-------------1--------1--------------1------------------------------------|
G|-------2--------0------------2-----------2--------------------------------|
D|----------3--------3------------3------------3----------------------------|
A|--------------------------------------------------------------------------|
E|---1---------------------1------------------------------------------------|

 Bb
e|--------------------------------------------------------------------------|
B|---------------3------------3-------------3-------------------------------|
G|---------3---------0---------------3-----------3--------------------------|
D|------------3-----------3-------------3------------3----------------------|
A|----1--------------------------2------------------------------------------|
E|--------------------------------------------------------------------------|

      A7sus4              A7
e|-----------------0------0-------------------------------------------------|
B|--------------3-----3---2-------------------------------------------------|
G|---------0--------------0-------------------------------------------------|
D|-----------2------------2-------------------------------------------------|
A|-----0------------------0-------------------------------------------------|
E|--------------------------------------------------------------------------|


(this part is played on the second verse, before "someday..")
     A7sus4               A7
e|-----------------0-----------------0-----|
B|--------------3-----3---2-----2h3--------|
G|---------0-------------------------------|
D|-----------2---------------2-------------|
A|-----0------------------0----------------|
E|-----------------------------------------|

 (SOLO)

        Gm6                        Dsus2/F#
e|--------------------------------------------------------------------------|
B|--------------------------------------------------------------------------|
G|--------------------------------------------------------------------------|
D|---0--2-3----0-2-3-2-0-3-2-0-2-0-2/4--------------------------------------|
A|---------------------------------------5\0--------------------------------|
E|--------------------------------------------------------------------------|

    Gm6                               Dsus2/F
e|---0---3--1--0--3--1--0--3--1--0-----------0----0------0------------------|
B|---3---3--3--3--3--3--3--3--3--3---------6-----6----6---------------------|
G|---3---3--3--3--3--3--3--3--3--3-------5-----5----5-----------------------|
D|---0---0--0--0--0--0--0--0--0--0----0-------------------------------------|
A|--------------------------------------------------------------------------|
E|--------------------------------------------------------------------------|

   Gm6                              Dsus2/F#
e|---------------------------5-6--9-10---10-9-------------------------------|
B|--------------------5-6-8-------------------12-10\------------------------|
G|---------------6-7--------------------------------------------------------|
D|--------5-7-8-------------------------------------------------------------|
A|--5-7-8-------------------------------------------------------------------|
E|--------------------------------------------------------------------------|

    Gm6                       Dsus2/F#
e|---0--3--1--0-------------------------------------------------------------|
B|---3--3--3--3--3------1---------------------------------------------------|
G|---3--3--3--3-------------3--2--------------------------------------------|
D|---0--0--0--0-------------------------------------------------------------|
A|--------------------------------------------------------------------------|
E|--------------------------------------------------------------------------|

Gm6                          Dsus2/F#
  I come before you with my heart in my hand
  Gm6                               Dsus2/F
  Hoping you can see me through this veil of tears
Gm6                           Dsus2/F#
  Somehow I've got to make you understand
Gm6                          Dsus2/F
  Ah, don't you know me after all these years?

  Bb           F
  Oh, love, I hate to disappoint you
               Bb                   A7sus4  A7
  But there's something you should know


(chorus)

  Gm6              Dsus2/F#
  This is not the center of the universe
  Gm6                Dsus2/F
  That's alright with me
  Gm6             Dsus2/F#
  This is not the center of the universe
           Gm6          Dsus2/F
  But it's where I wanna be

Gm6                        Dsus2/F#
  I will be with you everywhere you go
Gm6                       Dsus2/F
  In gentle breezes that caress your skin
Gm6                          Dsus2/F#
  And you will see me in the silent snow
Gm6                        Dsus2/F
  In everything that comes around again

  Bb              F
  Oh, love, I'll always be beside you
     Bb            A7sus4  A7
  Wherever you may roam
  Bb             F
  Someday, with all the stars to guide you
            Bb                A7sus4  A7
  You will find your way back home

(solo)(chorus)


  these are the chords:

  Gm6:      3x0330
  Dsus2/F#: 2x0230
  Dsus2/F:  1x0230
  Bb:       x1333x
  F:        133211
  A7sus4:   x02030
  A7:       x02020





Comments


Popular Eagles tabs & chords
Already Gone Bass Tabs
Outlaw Man Bass Tabs
Best Of My Love 1 Chords
Best Of My Love 2 Chords
Love Will Keep Us Alive Chords
Midnight Flyer Chords
In The City Tabs
Last Resort Tabs
New Kid In Town 1 Tabs
How Long Ukulele


Song lyrics



↑ Back to top | Tablatures and chords are parodies/interpretations of the original songs. You may use it for private study, scholarship, research or language learning purposes only
© 2014 AZChords.com Contact us | Privacy policy | DMCA | Add/correct tabs | Request tabs | Top 50 tabs