» » »

Dynamite Hack, Wusseypuff Tabs (ver.1)

Artists:  A B C D E F G H I J K L M N O P Q R S T U V W X Y Z # 

Wusseypuff Tabs (ver.1)

Dynamite Hack Tabs
Rating:
0/5 (0 votes)
Wusseypuff lessons Tabs too difficult? Try these video lessons and learn fast
                "Wusseypuff" - Dynamite Hack

intro1: guitar1
	E|---------------------------------------|
	B|---------------------------------------|
	G|-44-44-4444---------------------9-11-8-|
	D|-44----4444-44-44-4444-22222222-X-X--X-|
	A|-22----2222-44----4444-22222222-7-9--6-|
	E|------------22----2222-00000000--------|

intro2: guitar1
	E|-----------------------------------------|
	B|-----------------------------------------|
	G|-44-44-44-44----------------------9-11-8-|
	D|-44----44----44-44-44-44-22222222-X-X--X-|
	A|-22----22----44----44----22222222-7-9--6-|
	E|-------------22----22----00000000--------|

intro2: guitar2
	E|-----------------------------------------|
	B|-----------------------------------------|
	G|-44----44--------------------------------|
	D|-44----44----44----44----2222222222222222|
	A|-22----22----44----44----2222222222222222|
	E|-------------22----22----0000000000000000|

guitar1 is silent for first half of verse, only bass and drums play,
when guitar1 comes in im pretty sure this is what it plays:
	E|-------------|	
	B|-77-99-55/99-|
	G|-44-66-22/66-|
	D|-------------|
	A|-------------|
	E|-------------|

verse: guitar2(feedback)

chorus: both guitars
	E|--------------------------------------------------------------|
	B|--------------------------------------------------------------|
    	G|-4-------------6------9------4-------------6------9-----11----|
    	D|-4(16X)-6------6(16X)-9(16X)-4(16X)-6------6(16X)-9(8X)-11(8X)|
    	A|-2------6(16X)-4------7------2------6(16X)-4------7-----9-----|
    	E|--------4---------------------------4-------------------------|

outro(mollys lips and finger tips): both guitars
	E|-------------------------|
	B|-------------------------|
	G|-44-44-------------------|
	D|-44-44-44-44-22-22-44-44-|
	A|-22-22-44-44-22-22-44-44-|
	E|-------22-22-00-00-22-22-|

intro1	1X
intro2	3X
verse	4X
chorus	1X
intro2	2X
verse	4X
chorus	1X
intro2	4X
outro	2X

end on
	G|-4-
	D|-4-
	A|-2-
	E|---
            
Submit corrections

comments powered by Disqus
↑ Back to top | Dynamite Hack Tabs for Wusseypuff. Lyrics for acoustic guitar and electric guitar. Tablatures and chords are parodies/interpretations of the original songs. You may use it for private study, scholarship, research or language learning purposes only