>
 >
Dear Kate

Dear Kate Guitar Tabs

Dynamite Hack - Dear Kate chords, tabs, tablatures, lyrics

Guitar lessons | Add/correct | Request | Top 50 tabs Artists:  A B C D E F G H I J K L M N O P Q R S T U V W X Y Z 0-9

Dear Kate Guitar Tabs – Dynamite Hack

CD, Sheet music, Poster

Do you like Dear Kate? Share with your friends now
Tabs

I haven't seen a tab for this song ever. I love the song, so I tabbed it out by ear. I'm pretty sure its at least 95% complete.

Intro: (x4)
e|-------------------------------------
B|-------------------------------------
G|---------44444444-55555555------7777-
D|55555555-44444444-55555555-2222-7777-
A|55555555-22222222-33333333-2222-5555-
E|33333333-------------------0000------
End of Intro: (x1)
e|--------------------------
B|--------------------------
G|5-7-4-9-5-77-77-77-77-7777
D|5-7-4-9-5-77-77-77-77-7777
A|3-5-2-7-3-55-55-55-55-5555
E|--------------------------
Chorus 1 (x2)
e|-----------------------------------
B|-----------------------------------
G|---------44444444-5555555555555555-
D|55555555-44444444-5555555555555555-
A|55555555-22222222-3333333333333333-
E|33333333---------------------------
Chorus 2 (x1)
e|-----------------------------------------------------------------
B|-----------------------------------------------------------------
G|---------44444444-55555555-99-77-55-44----------44444444-55555555
D|55555555-44444444-55555555-xx-xx-xx-xx-55555555-44444444-55555555     pickslide
A|55555555-22222222-33333333-77-55-33-22-55555555-22222222-33333333
E|33333333-------------------------------33333333------------------
Solo 1 (x1)
e|-----------15-15---------------------------------------15-15-15h17p15-17--------
B|------12h13-----12-13-12-15-12h13p12p10-12--------12h13-----------------15p13p12
G|12-12-------------------------------------12-12-12------------------------------
D|--------------------------------------------------------------------------------
A|--------------------------------------------------------------------------------
E|--------------------------------------------------------------------------------
Solo 1 Continued
e|----------
B|10fb^r-8-5
G|----------
D|----------
A|----------
E|----------
Verse 1 (x1)
e|------------------------------------
B|------------------------------------
G|---------44444444-55555555-9999-7777
D|55555555-44444444-55555555-9999-7777
A|55555555-22222222-33333333-7777-5555
E|33333333----------------------------
Verse 2 is a verse 1 variation. Instead of playing the E and D chords 4 times, just play them twice, both downstrokes.
Then play Verse 1 (x2)
Then, Pre-Chorus (x1)
e|------------------------
B|------------------------
G|5---4-5-77-77-77-77-7777
D|5-2-4-5-77-77-77-77-7777
A|3-2-2-3-55-55-55-55-5555
E|--0---------------------
Then play Chorus 1 (x2), then Chorus 2 (x1)
Bridge 1 (x2) Note: Use all downstrokes in this part.
e|-------------------
B|-------------------
G|9999-7777-9999-7777
D|9999-7777-9999-7777
A|7777-5555-7777-5555
E|-------------------
Bridge 2 (x1)
e|--------------------------
B|--------------------------
G|---------44444444-55555555
D|55555555-44444444-55555555
A|55555555-22222222-33333333
E|33333333------------------
Solo 2 (x1)
e|------------------------------------------12--12--12--12--12---------------------
B|----------------------------------------12--12--13--15--15-----------------------
G|4---4-7-4-7/9/11/12-12-9-11-7-9-11-12-14--------------------14h16p14p12-12-----12
D|-5-7--------------------9----9--------------------------------------------12-14--
A|---------------------------------------------------------------------------------
E|---------------------------------------------------------------------------------
Solo 2 Continued
e|------------------
B|------------------
G|--12--12----------
D|14--14--14-12-----
A|-------------14-10
E|------------------
Then, Pre-Chorus (x1) Note: In this Pre-Chorus, you can add an octave at 17 on A if you want.
G|19
D|x
A|17
Then Play Chorus (x3)
Then play:
e|----------------------------
B|----------------------------
G|---------44444444-5-4-2-----
D|55555555-44444444-5-4-2-5-4-555
A|55555555-22222222-3-2-0-5-4-555
E|33333333----------------3-2-333   <------- The End!!!! Yay! Email Me w/ corrections. Its a pretty easy song. Have fun w/ it.





Comments


Popular Dynamite Hack tabs & chords
Anyway Bass Tabs
Anyway 1 Chords
Boyz In The Hood Chords
Boyz In The Hood 1 Chords
Boyz In The Hood 3 Chords
Anyway 2 Tabs
Boyz N The Hood Tabs
Anyway Ukulele
Boyz In The Hood Ukulele
Boyz N The Hood Ukulele


Song lyrics



↑ Back to top | Tablatures and chords are parodies/interpretations of the original songs. You may use it for private study, scholarship, research or language learning purposes only
© 2014 AZChords.com Contact us | Privacy policy | DMCA | Add/correct tabs | Request tabs | Top 50 tabs