» » »

Dynamite Hack, Alvin Tabs (ver.1)

Artists:  A B C D E F G H I J K L M N O P Q R S T U V W X Y Z # 

Alvin Tabs (ver.1)

Dynamite Hack Tabs
 Rating:
4/5 (4 votes)
Alvin lessons Tabs too difficult? Try these video lessons and learn fast
                
INTRO/Riff 1A:
E:------------------------
B:------------------------
G:--4-3-4-3-4-5-7-6-7-6-7-
D:------------------------
A:------------------------
E:------------------------

Riff 1B (played over Riff 1 A with the exception of the intro and outro)
E:------------------------
B:------------------------
G:------------5-----------
D:--5-5-5-5-5-5-5-5-5-5-5-
A:--5-5-5-5-5-3-5-5-5-5-5-
E:--3-3-3-3-3---3-3-3-3-3-

VERSE 1 (repeat this pattern over the entire first Verse):
E:---------------
B:---------------
G:--7-7-7/5-5-5/-
D:--7-7-7/5-5-5/-
A:--5-5-5/3-3-3/-
E:---------------

RIFF 1 A/RIFF 2 B

CHORUS (repeat 4 times)
E:--------------------
B:--------------------
G:------7-7-----------
D:--5-5-7-7-7-7-3-3-4-
A:--5-5-5-5-7-7-3-3-4-
E:--3-3-----5-5-1-1-2-

END CHORUS (at the end of the chorus the first time it's played only)
E:--------------------------
B:--------------------------
G:----------5-5-5-5---------
D:--5-5-5-5-5-5-5-5-7-7-7-7-
A:--5-5-5-5-3-3-3-3-7-7-7-7-
E:--3-3-3-3---------5-5-5-5-

VERSE 2 (repeat until RIFF 1A/1B)
E:----------------------------
B:----------------------------
G:--7-7-7/5-5-4-4-5-5-6-6-7-7-
D:--7-7-7/5-5-4-4-5-5-6-6-7-7-
A:--5-5-5/3-3-2-2-2-2-4-4-5-5-
E:----------------------------

RIFF 1A/1B

VERSE 2

RIFF 1A/1B

CHORUS

BRIDGE 1 (Same as the Chorus)

BRIDGE 2 (played over solo)
E:----------------------
B:----------------------
G:--------------7-7-5-5-
D:--5-5-7-7-3-3-7-7-5-5-
A:--5-5-7-7-3-3-5-5-3-3-
E:--3-3-5-5-1-1---------

OUTRO (Riff 1A only)
            
Submit corrections

comments powered by Disqus
↑ Back to top | Dynamite Hack Tabs for Alvin. Lyrics for acoustic guitar and electric guitar. Tablatures and chords are parodies/interpretations of the original songs. You may use it for private study, scholarship, research or language learning purposes only