» » »

By Chance Tabs (ver.1)

Artists:  A B C D E F G H I J K L M N O P Q R S T U V W X Y Z # 

By Chance Tabs (ver.1)

Dynamite Boy
Rating:
0/5 (0 votes)

Hard to play? Try these video lessons and learn fast.
                "By Chance" by Dynamite Boy
off the album "Hell Is Other People"
mxtabs id: coincidentalminorguitar

like all Dynamite Boy songs, simple power chords in half-step down tuning (d sharp)

[=======pm=======] palm mute

intro, first but only bass. the guitar comes in

d#---------------------|
a#---------------------|
f#-----------7777------|
c#-2222-4444-7777-7777-| x4
g#-2222-4444-5555-7777-|
d#-0000-2222------5555-|

After first two of those, guitar 2 plays this overtop the last two times

d#-----------------------------------------------0-------|
a#-------------------------------------------------------|
f#-2-2-1-1-------2---1-1-1---------2-2-1-1---2-2---------|
c#---------4-2-2-----------4-2-2-2---------4-------------| x2
g#-------------------------------------------------------|
d#-------------------------------------------------------|

verse "I've found a new place to call home..."

d#-------------------------------------|
a#-------------------------------------|
f#-------------------77777777----------|
c#-22222222-44444444-77777777-77777777-| x4
g#-22222222-44444444-55555555-77777777-|   
d#-00000000-22222222----------55555555-|      
                                              
  [============pm============|= = = = =]      
                                              
palm mute first time only on all four, second time only on first three
then play twice again with no palm muting fort second half of verse

first half of chorus "I want to... see if you..."
 
d#-------------------------------------|
a#-------------------------------------|
f#-------------------77----------------|
c#-22-------44-------77-------77-------| x2
g#-22-------44-------55-------77-------|
d#-00-------22----------------55-------|

then second half of chorus "...you know what I'm going through..."

d#---------------------|
a#---------------------|
f#-----------7777------|
c#-2222-4444-7777-7777-| x2
g#-2222-4444-5555-7777-|
d#-0000-2222------5555-|

Go back to beginning, play intro rhythm x2 with the lead part on high d# string again.
do the verse again, and the chorus (both halves)

Then this is the outro I spose. Play the normal intro part with the lead on the high d#, (x2)
then come to this. play normal rhythm on guitar 1, and on guitar two play this

d#---------------------------------------------|
a#---------------------------------------------|
f#-2-2-4-4-6-6-7-7-6-6-6-6-7-7-6-6-4-2-2-2-----|
c#---------------------------------------------|
g#---------------------------------------------|
d#---------------------------------------------|

then play the first lead again once (like usual, with normal rhythm) and then hold the last note after for a fadeout. song done.
            
Hard to play? Try these video lessons and learn fast. | Correct




comments powered by Disqus
↑ Back to top | Tablatures and chords are parodies/interpretations of the original songs. You may use it for private study, scholarship, research or language learning purposes only