» » »

Dylan Bob, Stuck Inside Of Mobile With The Memphis Blues Again Bass tabs (ver.1)

Artists:  A B C D E F G H I J K L M N O P Q R S T U V W X Y Z # 

Stuck Inside Of Mobile With The Memphis Blues Again Bass tabs (ver.1)

Dylan Bob Tabs
Rating:
0/5 (0 votes)
Stuck Inside Of Mobile With The Memphis Blues Again lessons Tabs too difficult? Try these video lessons and learn fast
                Note that this is just a basic outline of this rather excellent song.
Good for improvisation.


Verse

G|---------|---------|---------|---------|---------|---------|---------|--------------|
D|-2--2-2--|---------|-2--2-2--|---------|-2--2-2--|---------|---------|--------------|
A|---------|-4--4-4--|---------|-4--4-4--|---------|-4--4-4--|-0--0-0--|-2--2--2--2-1-|
E|---------|---------|---------|---------|---------|---------|---------|--------------|

G|---------|---------|---------|---------|---------|---------|---------|-----------0-||
D|---------|-2--2-2--|---------|-2--2-2--|---------|-2--2-2--|---------|-2--2--2--2--||
A|-0--0-0--|---------|-4--4-4--|---------|-4--4-4--|---------|-0--0-0--|-------------||
E|---------|---------|---------|---------|---------|---------|---------|-------------||


Chorus
                                               {not entirely sure about
this bit}
G|-1--1-1---|-1--1-1---|-1--1-1---|-1--1--1--1-|---------|---------|---------||
D|---------1|---------1|---------1|-----------1|-2-------|---------|-----2---||
A|----------|----------|----------|------------|-----2---|-4---2---|-0-------||
E|----------|----------|----------|------------|---------|---------|---------||


Pre-Verse

G|---------|---------|---------||
D|-2---0---|---------|---------||
A|---------|-2---0---|---------||
E|---------|---------|-3---1---||


Outro

G|-----4----4-|-----4----4-|-----4----4-|-----4----4-|---------|---------|---------|-------||
D|-2--2-2--2--|-2--2-2--2--|-2--2-2--2--|-2--2-2--2--|-2-------|---------|---------|-2-----||
A|------------|------------|------------|------------|-----2---|-4---2---|-0---2---|-------||
E|------------|------------|------------|------------|---------|---------|---------|-------||
            

comments powered by Disqus
↑ Back to top | Dylan Bob Bass for Stuck Inside Of Mobile With The Memphis Blues Again. Lyrics for acoustic guitar and electric guitar. Tablatures and chords are parodies/interpretations of the original songs. You may use it for private study, scholarship, research or language learning purposes only