» » »

Slow Train Coming Bass tabs (ver.1)

Artists:  A B C D E F G H I J K L M N O P Q R S T U V W X Y Z # 

Slow Train Coming Bass tabs (ver.1)

Dylan Bob
Rating:
0/5 (0 votes)

Hard to play? Try these video lessons and learn fast.
                VERSE 

G---------------------|--------------------|------------|---------------------| 
D-------7-5--7--------|-7-----5-7----------|------------|-------7-5-------5-7-| 
A-0--0----------5-3-0-|----7-------6--5--3-|-5-5--0-5-5-|-0--0-------5-7------| 
E---------------------|--------------------|------------|---------------------| 

CHORUS 

G------------------------| |--------------------7-7-| |-----------------------5-7-7-| 
D------------------------| |------------------------| |--------------------7--------| 
A--------------3--5--5-5-| |--------------3--5------| |--------------3--5-----------| 
E-1--1-1--1-5------------| |-1--1-1--1-5------------| |-1--1-1--1-5-----------------| 
                                                                              pop 
G-------------------------| |-------------------------7-| |-------------------5^7-| 
D-------------------------| |--------------------5-7----| |-----------------------| 
A-------------5--5-5--12/-| |--------------3--5---------| |---------------5-------| 
E-1--1-1--8/--------------| |-1--1-1--1-5---------------| |-1--1-1--\11/----------| 

G-----------------------5-7-5-7--7-5----| |----------------------| 
D--------------------7----------------7-| |----------------------| 
A--------------3--5---------------------| |---------5--5-5-------| 
E-1--1-1--1-5---------------------------| |-1--1-1-----------3-4-| 

THAT SHOULD BE EVERYTHING 

XX1134XX
            
Hard to play? Try these video lessons and learn fast. | Correct




comments powered by Disqus
↑ Back to top | Tablatures and chords are parodies/interpretations of the original songs. You may use it for private study, scholarship, research or language learning purposes only