» » »

Lay Lady Lay Bass tabs (ver.1)

Artists:  A B C D E F G H I J K L M N O P Q R S T U V W X Y Z # 

Lay Lady Lay Bass tabs (ver.1)

Dylan Bob
Rating:
0/5 (0 votes)

Hard to play? Try these video lessons and learn fast.
                Intro

G|------|------|------|------||
D|------|------|-5----|------||
A|------|-4----|------|-2----||
E|-5----|------|------|------||


Verses
                             x4
x2                           x2
G|------|------|------|------||-------|-------|------------||------|------|------|------||
D|------|------|-5----|------||-2---2-|-4---4-|------------||------|------|-5----|------||
A|------|-4----|------|-2----||-------|-------|------------||------|-4----|------|-2----||
E|-5----|------|------|------||-------|-------|-5--0-5--55-||-5----|------|------|------||



Bridge

G|-------|--------|-------------|-------|----------|---------------|
D|-------|--------|-2-2---------|-------|----------|---------22-2--|
A|-4--4--|-4-4--4-|------0--023-|-4--4--|-4-4---43-|-2-0-0--0----0-|
E|-------|--------|-------------|-------|----------|---------------|

G|-------|-------|-------------|----------------|------||
D|-------|-------|-2-2---------|-------|-----6--|------||
A|-4-----|-4--4--|------0--023-|-4--4--|-4--4-4-|-2----||
E|-----4-|-------|-------------|----------------|------||


Outro

G|------|------|------|------|------||
D|------|------|------|------|------||
A|------|-2----|-4----|-5----|-7----||
E|-5----|------|------|------|------||



the only real variation is on the first part of the verse, and it goes
something like this
(i think)

G|-------|------|------|------||
D|-\7----|-6----|-5----|-4----||
A|-------|------|------|------||
E|-------|------|------|------||
            
Hard to play? Try these video lessons and learn fast. | Correct




comments powered by Disqus
↑ Back to top | Tablatures and chords are parodies/interpretations of the original songs. You may use it for private study, scholarship, research or language learning purposes only