» » »

Dylan Bob, Knockin On Heavens Door Tabs (ver.3)

Artists:  A B C D E F G H I J K L M N O P Q R S T U V W X Y Z # 

Knockin On Heavens Door Tabs (ver.3)

Dylan Bob Tabs
Rating:
0/5 (0 votes)
Knockin On Heavens Door lessons Tabs too difficult? Try these video lessons and learn fast
                (Live)
Bob Dylan w/ GreatFul Dead
-I Tabbed This From A Live Mp3 So Give Me Some Credit It Was Hard To Hear.
-If You Need The Mp3 Search For "Bob Dylan & GreatFul Dead - Knockin On Heavens Door"

Intro

-3----3----2----2----0----0---------------------------------
-3----3----3----3----1----1---------------------------------
-0----0----2----2----0----0----------0-2-0----0-------------
-0----0----0----0----2----2-----0-2---------2---------------
-2----2--------------3----3---------------------------------
-3----3-----------------------------------------------------

-3----3----2----2----0----0---------------------------------
-3----3----3----3----1----1---------------------------------
-0----0----2----2----1----1----------0-2-0------------------
-0----0----0----0----2----2-----0-2---------2---------------
-2----2--------------0----0---------------------------------
-3----3-----------------------------------------------------

-3----3----2----2----0----0---------------------------------
-3----3----3----3----1----1---------------------------------
-0----0----2----2----0----0----------0h2-0------------------
-0----0----0----0----2----2-----0h2---------2-0-2--0h2------
-2----2--------------3----3---------------------------------
-3----3-----------------------------------------------------

                                 ooouuhh   ooouuhh  oouuhh
-3----3----2----2----0----0--   -----3---------2--------0----
-3----3----3----3----1----1--   -----3---------3--------1----
-0----0----2----2----0----1--   -----0---------2--------0----
-0----0----0----0----2----2--   -----0---------0--------2----
-2----2--------------3----0--   -----2------------------3----
-3----3----------------------   -----3-----------------------

 ooouuhh   ooouuhh  oouuhh
-----3---------2--------0----
-----3---------3--------1----
-----0---------2--------1----
-----0---------0--------2----
-----2------------------0----
-----3-----------------------

Verse

Mama Take This Badge From Me      I Cant Use It Anymore
-3----2-------------------0---   --3----2----------0---------------
-3----3-------------------1---   --3----3----------1---------------
-0----2-------------------1---   --0----2----------0--------2-0----
-0----0-------------------2---   --0----0----------2----0h2------2-
-2------------------------0---   --2---------------3---------------
-3----------------------------   --3-------------------------------
   
Its Getting Dark Too Dark To See   Feels Like Im Knocking On Heavens Door
-3----2-----------------------0-   --3----2---------------------------0-------------
-3----3-----------------------1-   --3----3---------------------------1-------------
-0----2-----------------------2-   --0----2---------------------------0-------2-0---
-0----0-----------------------2-   --0----0---------------------------2---0h2-----2-
-2----------------------------0-   --2--------------------------------3-------------
-3------------------------------   --3----------------------------------------------

Chorus

Knock Knock Knocking On Heavens Door    Knock Knock Knocking On Heavens Door
-3------2-------------------------0--   --3----2-------------------------0-------------------
-3------3-------------------------1--   --3----3-------------------------1-------------------
-0------2-------------------------2--   --0----2-------------------------0--------0-2-0----0-
-0------0-------------------------2--   --0----0-------------------------2----0-2--------2---
-2--------------------------------0--   --2------------------------------3-------------------
-3-----------------------------------   --3--------------------------------------------------

Knock Knock Knocking On Heavens Door    Knock Knock Knocking On Heavens Door
-3------2-------------------------0--   --3----2-------------------------0-------------------
-3------3-------------------------1--   --3----3-------------------------1-------------------
-0------2-------------------------2--   --0----2-------------------------0--------0-2-0----0-
-0------0-------------------------2--   --0----0-------------------------2----0-2--------2---
-2--------------------------------0--   --2------------------------------3-------------------
-3-----------------------------------   --3--------------------------------------------------

Verse 2

Mama Put My Guns To The Ground    I Cant Use Them Anymore
-3----2-------------------0----   -3----2-----------0-------------
-3----3-------------------1----   -3----3-----------1-------------
-0----2-------------------1----   -0----2-----------0-------2-0---
-0----0-------------------2----   -0----0-----------2---0h2-----2-
-2------------------------0----   -2----------------3-------------
-3-----------------------------   -3------------------------------

That Dark Black Cloud Is Coming Down    It Feels Like Im Knocking On Heavens Door
-3----2--------------------------0---   -3---2---------------------------------0-------------
-3----3--------------------------1---   -3---3---------------------------------1-------------
-0----2--------------------------1---   -0---2---------------------------------0-------2-0---
-0----0--------------------------2---   -0---0---------------------------------2---0h2-----2-
-2-------------------------------0---   -2-------------------------------------3-------------
-3-----------------------------------   -3---------------------------------------------------

Chorus

Knock Knock Knocking On Heavens Door    Knock Knock Knocking On Heavens Door
-3------2-------------------------0--   --3----2-------------------------0-------------------
-3------3-------------------------1--   --3----3-------------------------1-------------------
-0------2-------------------------2--   --0----2-------------------------0--------0-2-0----0-
-0------0-------------------------2--   --0----0-------------------------2----0-2--------2---
-2--------------------------------0--   --2------------------------------3-------------------
-3-----------------------------------   --3--------------------------------------------------

Knock Knock Knocking On Heavens Door    Knock Knock Knocking On Heavens Door
-3------2-------------------------0--   --3----2-------------------------0-------------------
-3------3-------------------------1--   --3----3-------------------------1-------------------
-0------2-------------------------2--   --0----2-------------------------0--------0-2-0----0-
-0------0-------------------------2--   --0----0-------------------------2----0-2--------2---
-2--------------------------------0--   --2------------------------------3-------------------
-3-----------------------------------   --3--------------------------------------------------

[Play The Intro Again]
[Then Finish Out With The Chorus]
            
Submit corrections

comments powered by Disqus
↑ Back to top | Dylan Bob Tabs for Knockin On Heavens Door. Lyrics for acoustic guitar and electric guitar. Tablatures and chords are parodies/interpretations of the original songs. You may use it for private study, scholarship, research or language learning purposes only