» » »

Dylan Bob, It Takes A Lot To Laugh Tabs (ver.2)

Artists:  A B C D E F G H I J K L M N O P Q R S T U V W X Y Z # 

It Takes A Lot To Laugh Tabs (ver.2)

Dylan Bob Tabs
 Rating:
4/5 (4 votes)
It Takes A Lot To Laugh lessons Tabs too difficult? Try these video lessons and learn fast
                Intro:

E-----------------------------------------------------------
B---------------------2h3--2--------------------------------
G-----------------------------------------------------------
D---------------------2h4--2--------------------------------
A--0---------0----0-----------------------------------------
E-----0h2-4-------------------------------------------------


                A
Well, I drive a mailtrain, mama,

      A7-Ab7-G7

E---9----9-8----8-7----0------------------------------------
B---8----8-7----7-6----2------------------------------------
G---9----9-8----8-7----2------------------------------------
D----------------------2------------------------------------
A----------------------0------------------------------------
E-----------------------------------------------------------


E7   A7    Ab7   G7   A
     Can't buy   a    thrill
                A
Well, I've been up all night, mama,
E7  A7      Ab7    G7     A
    Leanin' on the window sill
A    G      D          E7
If I die on top of the hill
A                     E7       A7      Ab7  G7  A
And if I don't make it,    you know my ba   by  will

Don't the moon look good,
Shinin' through the trees?
Don't the brakeman look good, mama,
Flagging down the "Double E"?
Don't the sun look good goin' down over the sea?
Don't my gal look fine when she's comin' after me?

Wintertime is coming, the windows are filled with frost
I went to tell everybody, but I could not get across
Well, I wanna be your lover, baby, don't wanna be your boss
Don't say I never warned you when your train gets lost
            
Submit corrections

comments powered by Disqus
↑ Back to top | Dylan Bob Tabs for It Takes A Lot To Laugh. Lyrics for acoustic guitar and electric guitar. Tablatures and chords are parodies/interpretations of the original songs. You may use it for private study, scholarship, research or language learning purposes only