>
 >
House Of The Rising Sun 1

House Of The Rising Sun 1 Guitar Tabs

Dylan Bob - House Of The Rising Sun 1 chords, tabs, tablatures, lyrics

Guitar lessons | Add/correct | Request | Top 50 tabs Artists:  A B C D E F G H I J K L M N O P Q R S T U V W X Y Z 0-9

House Of The Rising Sun 1 Guitar Tabs – Dylan Bob

CD, Sheet music, Poster

Do you like House Of The Rising Sun 1? Share with your friends now
Bass TabsChordsTabsTabs v2
Heres the finger picking for this song, I think I works out alright


   Am               C                   D              F

|---------0------------------0----------------2----------------1---------
|-------1---1--------------1---1------------3---3------------1---1-------
|-----2-------0----------0-------0---------2------0---------2-----0------
|---------------------------------------0-0-------------3-3--------------
|0-0----------------3-3--------------------------------------------------
|------------------------------------------------------------------------


   Am               C                   E              

|---------0------------------0----------------0----------------0---------
|-------1---1--------------1---1------------0---0------------0---0-------
|-----2-------0----------0-------0--------1-------1---------1-----0------
|-------------------------------------------------------4-4--------------
|0-0----------------3-3--------------------------------------------------
|---------------------------------------0-0------------------------------



Follow these stringing for the song

Am         C          D      F
There is a house down in New Orleans

Am       C      E
They call the Risin' Sun

Am             C       D        F
And it's been the ruin of many poor girl

Am     E          Am        E   
And me, oh God, I'm a-one

 

2)

My mother was a taylor

She sewed these new blue jeans

My sweetheart was a gambler, Lord

Down in New Orleans

 

3)

Now the only thing a gambler needs

Is a suitcase and a trunk

And the only time he's satisfied

Is when he's on a drunk

 

4)

He fills his glasses up to the brim

And he'll pace the cards around

And the only pleasure he gets out of life

Is ramblin' from town to town

 

5)

Oh tell my baby sister

Not to do as I have done

But to shun that house in New Orleans

They call the Risin' Sun

 

6)

Well, it's one foot on the platform

And the other foot on the train

I'm goin' back to New Orleans

To wear that ball and chain

 

7)

I'm a-goin' back to New Orleans

My race is almost run

I'm goin' back to end my life

Down in the Risin' Sun

 

8)

There is a house in New Orleans

They call the Risin' Sun

It's been the ruin of many poor girl

And me, oh God, Im a-one





Comments


Popular Dylan Bob tabs & chords
Gospel Plow Chords
It Aint Me Babe Chords
The Ballad Of A Thin Man Chords
The Times They Are A Changin Chords
When The Ship Comes In Chords
Blowing In The Wind Tabs
Id Have You Anytime Tabs
Im Not There Tabs
Its All Over Now Baby Blue 1 Tabs
Nobody Cept You Tabs


Song lyrics



↑ Back to top | Tablatures and chords are parodies/interpretations of the original songs. You may use it for private study, scholarship, research or language learning purposes only
© 2014 AZChords.com Contact us | Privacy policy | DMCA | Add/correct tabs | Request tabs | Top 50 tabs