» » »

Dylan Bob, House Of The Rising Sun Tabs (ver.2)

Artists:  A B C D E F G H I J K L M N O P Q R S T U V W X Y Z # 

House Of The Rising Sun Tabs (ver.2)

Dylan Bob Tabs
 Rating:
4/5 (4 votes)
House Of The Rising Sun lessons Tabs too difficult? Try these video lessons and learn fast
1
                I saw the tabs for this on the top 50 and it was wrong. Here's how you really play it.

House of the Rising Sun
(Artist unkown...by me)

Chords:
Am-002210
C-032010
D-000232
F-003211
E-022100


Intro:

 Am       C        D       F      Am      E       Am      E

-----0--------0-------2-------1-------0---------------1------------|
----1-1------1-1-----3-3-----1-1-----1-1------0------1-1------0----|
---2---2----0---0---2---2---2---2---2---2----1-1----2---2----1-1---|
--2--------2-------0-------3-------2--------2---2--2--------2---2--|
-0--------3-----------------------0--------2------0--------2-------|
------------------------------------------0---------------0--------|


Verses:

	Am		C	       D       F
    -----0---    -----0---     ----2-------1--------|
        ----1-1--    ----1-1--     ---3-3-----1-1---|
    ---2---2-    ---0---0-     --2---2---2---2------|
    --2------    --2------     -0-------3-----------|
    -0-------    -3-------     ---------------------|
    ---------    ---------     ---------------------|
There is         a house         in New Orleans

	Am		C         E       E
	-----0---	-----0---------------------|
	----1-1--	----1-1-------0-------0----|
	---2---2-	---0---0-----1-1-----1-1---|
	--2------	--2---------2---2---2---2--|
	-0-------	-3---------2-------2-------|
	---------	----------0-------0--------|
They Callllll    The Rising      Sun

	    Am			C	       D	    F
	    -----0---	       -----0---      ----2---	   ----1---|
	    ----1-1--	       ----1-1--      ---3-3--	   ---1-1--|
	    ---2---2-	       ---0---0-      --2---2-	   --2---2-|
	    --2------	       --2------      -0------	   -3------|
	    -0-------	       -3-------      --------	   --------|
	    ---------	       ---------      --------	   --------|
And It's been        right there        For many a poor boy

	Am		E		Am       E
	-----0---	---------	-----1------------|
	----1-1--	-----0---	----1-1------0----|
	---2---2-	----1-1--	---2---2----1-1---|
	--2------	---2---2-	--2--------2---2--|
	-0-------	--2------	-0--------2-------|
	---------	-0-------	---------0--------|
And God          I know          I'm one


(I don't know the words for the rest of the song)

START STRUMMING

Am C D F Am C E E

Am C D F Am E Am E

(Last verse back to picking)


end like this:

	Am		E		Am       E
	-----0---	---------	-----1------------|
	----1-1--	-----0---	----1-1------0----|
	---2---2-	----1-1--	---2---2----1-1---|
	--2------	---2---2-	--2--------2---2--|
	-0-------	--2------	-0--------2-------|
	---------	-0-------	---------0--------|
And God          I know          I'm one    (slow down)

	Am
	-0-------|
	-1-------|
	-2-------|
	-2-------|
	-0-------|
	---------|
   (strum- hold until chord fades)

So what did you think?
            
Submit corrections

comments powered by Disqus
↑ Back to top | Dylan Bob Tabs for House Of The Rising Sun. Lyrics for acoustic guitar and electric guitar. 1 Tablatures and chords are parodies/interpretations of the original songs. You may use it for private study, scholarship, research or language learning purposes only