» » »

Dylan Bob, Girl From The North Country Tabs (ver.1)

Artists:  A B C D E F G H I J K L M N O P Q R S T U V W X Y Z # 

Girl From The North Country Tabs (ver.1)

Dylan Bob Tabs
 Rating:
4/5 (4 votes)
Girl From The North Country lessons Tabs too difficult? Try these video lessons and learn fast
                Girl from the North Country - Bob Dylan

Capo on 3
Tabs relative to capo

???????  Intro  ??????? (just kind of a guideline)
E---3-------------3------3------3-----------------------|
B---0--0-----1------1------1------1---------------------|
G--------0------0------0------0------0--0--0----0--0----|
D-------0------0------2------2------2-------0-------0---|
A----------2h3------3------3------3---------------------|
E-3---3----------3------3------3------3---3---3---3---3-|

Main thing
  E7                      D7/F#       G           C/G
E----------------------------2--------------------------------------------|
B----3---3-------3---3-------1---1-------0---0-------1---1-------0---0----|
G----0-------0---0-------0-----------0---0-------0---0-------0---0-------0|
D----------2-----------2-----------0-----------0-----------2-----------0--|
A-------------------------------------------------------------------------|
E-0-----0-----0-----0-----2-----2-----3-----3-----3-----3-----3-----3-----|

Simplified version
E-------------------2-----------------------------|
B---3--3----3--3----1--1----0--0----1--1----0--0--|
G---0---0---0---0-------0---0---0---0---0---0---0-|
D-------------------------------------------------|
A-------------------------------------------------|
E-0---0---0---0---2---2---3---3---3---3---3---3---|

While singing Dylan will sometimes play the simplified version.

And that's about it.

Lyrics
If you're traveling in the north country fair
Where the winds hit heavy on the borderline
Remember me to one who lives there
For she once was a true love of mine
If you go when the snowflakes storm
When the rivers freeze and summer ends
Please see she has a coat so warm
To keep her from the howling winds
 
Please see if her hair hangs long
If it rolls and flows all down her breast
Please see for me if her hair is hanging long
For that's the way I remember her best
 
I'm a wondering if she remembers me at all
Many times I've often prayed
In the darkness of my night
In the brightness of my day
 
So if you're traveling in the north country fair
Where the winds hit heavy on the borderline
Remember me to one who lives there
She once was a true love of mine
            
Submit corrections

comments powered by Disqus
↑ Back to top | Dylan Bob Tabs for Girl From The North Country. Lyrics for acoustic guitar and electric guitar. Tablatures and chords are parodies/interpretations of the original songs. You may use it for private study, scholarship, research or language learning purposes only