» » »

From A Buick Bass tabs (ver.1)

Artists:  A B C D E F G H I J K L M N O P Q R S T U V W X Y Z # 

From A Buick Bass tabs (ver.1)

Dylan Bob
Rating:
0/5 (0 votes)

Hard to play? Try these video lessons and learn fast.
                "(6)
Intro
                 x4
G|-----3--3-5-3--||
D|---5---------5-||
A|-3-------------||
E|---------------||


1st Verse
                 x4                  x2               x2
x2               x2
G|-----3--3-5-3--||------8--8-10-8---||-----3--3-5-3--||---------------||-----3--3-5-3--||
D|---5---------5-||---10----------10-||---5---------5-||-----3--3-5-3--||---5---------5-||
A|-3-------------||-8----------------||-3-------------||---5---------5-||-3-------------||
E|---------------||------------------||---------------||-3-------------||---------------||



2nd, 3rd & 4th Verses, Harmonica Solo & Outro

                 x3              x1                  x2
x2               x2
G|-----3--3-5-3--||--------------||------8--8-10-8---||-----3--3-5-3--||---------------||
D|---5---------5-||---5----------||---10----------10-||---5---------5-||-----3--3-5-3--||
A|-3-------------||-3----3-5-6-7-||-8----------------||-3-------------||---5---------5-||
E|---------------||--------------||------------------||---------------||-3-------------||

                 x2
G|-----3--3-5-3--||
D|---5---------5-||
A|-3-------------||
E|---------------||
"            
Hard to play? Try these video lessons and learn fast. | Correct




comments powered by Disqus
↑ Back to top | Tablatures and chords are parodies/interpretations of the original songs. You may use it for private study, scholarship, research or language learning purposes only