» » »

Dylan Bob, All Along The Watchtower Bass tabs (ver.1)

Artists:  A B C D E F G H I J K L M N O P Q R S T U V W X Y Z # 

All Along The Watchtower Bass tabs (ver.1)

Dylan Bob Tabs
 Rating:
4/5 (4 votes)
All Along The Watchtower lessons Tabs too difficult? Try these video lessons and learn fast
                There is only one basic riff all through this classic Dylan song.

G|----------|-----------||
D|----------|-----------||
A|-4--4-2--2|-0--0-2----||
E|----------|-----------||


However, there are some variation throughout. Here are a few that I
play.

G|----6------4--|----2---------||
D|-----6------4-|-----2--------||
A|-4------2-----|-0------0-2-0-||
E|--------------|--------------||

G|--------------|--------------||
D|----6------4--|----2---------||
A|-4---4--2---2-|-0---2--0-2-0-||
E|--------------|--------------||

G|-----------------|-----------------||
D|-----------------|-----------------||
A|-4-4-4-4-2-2-2-2-|-0-0-0-0-0-2-0-0-||
E|-----------------|-----------------||

G|-----------|-----------||
D|-----------|-----------||
A|-4-4--2-2--|-0-0---0-2-||
E|-----------|------0-0--||
            
Submit corrections

comments powered by Disqus
↑ Back to top | Dylan Bob Bass for All Along The Watchtower. Lyrics for acoustic guitar and electric guitar. Tablatures and chords are parodies/interpretations of the original songs. You may use it for private study, scholarship, research or language learning purposes only