» » »

Thank You Chords (ver.1)

Artists:  A B C D E F G H I J K L M N O P Q R S T U V W X Y Z # 

Thank You Chords (ver.1)

Duran Duran
Rating:
0/5 (0 votes)

Hard to play? Try these video lessons and learn fast.
                This is an updated version of my original transciption. The only difference
is I have included the tabbed intro from the Album version of "Thank You" 
along with the chord intro from the "With Honors" soundtrack. Electric plays 

Chords:
  	EADGBe		
D  	xx0232		
Dsus4   xx0233	
Dm      xx0230 (no 3rd)
Cadd9	x32030
G*	320030
G	320033
Bm	224432
E 	022100
A	x02220

(This is the Intro from the "Thank You" album)

[Intro] x2

(Electric Tab)
e-||-----------------|------------------|---------------------|
B-||-----------------|------------------|---------------------|
G-||------55-/7-/5-5-|------33--/5-/3-3-|-------0-0--3-0-3--0-|
D-||----5------------|----3-------------|-----0---------------|
A-||-55--------------|-33---------------|---3-----------------|
E-||-----------------|------------------|-3-------------------|

    -----------------||
    -----------------||
    ------55-/7-/5-5-|| repeat
    ----5------------||
    -55--------------||
    -----------------||

(Acoustic Chords, Strummed during Intro, 
 you get to figure out the strumming pattern.)
  ||-----------------|------------------|---------------------|
  ||--D--------------|--Cadd9-----------|--G------------------|
  ||-----------------|------------------|---------------------|	

    -----------------||
    --D--------------||repeat
    -----------------||

(This is the Intro from the "With Honors" Soundtrack, just play chords)

[Intro] x2

D Dsus4 D Dm D Dm D Cadd9
Dsus4 D Dm D Dm D G*
Dsus4 D Dm D Dm D D


[Verse]

If the sun refuse to shine
I would still be loving you
and mountains crumble to the sea
			D 	      Bm	
and there will still be you and me

Bm	 	  E	           
kind of woman I give you my all

Bm	        E	    A	
kind of woman nothing more

[Bridge]

Cadd9	    	        G
little drops of rain whispered on the pain

D
tears and love lost in the days gone by

Cadd9	    	      G
our love is strong with you there is no wrong

D
together we shall go on till we die

la, la, la, la

[Verse]

Bm	       E		     
Inspiration is what you are to me

Bm	      E	  A
Inspiration love to see

[Solo] Play 3 times

D Dsus4 D Dm D Dm D Cadd9	** Remember Dm has no 3rd, xx0230     **
Dsus4 D Dm D Dm D G*		** The electric plays the same chords **
Dsus4 D Dm D Dm D D

[Verse]

and so today my world is mine
your hand in mine we walk the mile
thanks to you, it will be done
		          D   Bm	
you to me are the only one

	     E		      Bm	
happiness is no longer sad

          E   A	
happiness I'm glad

[Outro]

If the sun refuse to shine
I would still be loving you
mountains crumble to the sea
it's to be and me
            
Hard to play? Try these video lessons and learn fast. | Correct




comments powered by Disqus
↑ Back to top | Tablatures and chords are parodies/interpretations of the original songs. You may use it for private study, scholarship, research or language learning purposes only