» » »

Duran Duran, Notorious Bass tabs (ver.1)

Artists:  A B C D E F G H I J K L M N O P Q R S T U V W X Y Z # 

Notorious Bass tabs (ver.1)

Duran Duran Tabs
Rating:
0/5 (0 votes)
Hard to play? Try these video lessons and learn fast.
                
/ - Slide up
\ - Slide down
P - Pop
S - Slap
X- Dead note


Intro 
2 times

   S      P    S      P   S
G:--------7\5---------7\5---5----------------------------------
D:------------------------X------------------------------------
A:-3/5---------3/5---------------------------------------------
E:-------------------------------------------------------------

Verse 
4 times
   D 
   S      P    S      P   S
G:--------7\5---------7\5---5----------------------------------
D:------------------------X------------------------------------
A:-3/5---------3/5---------------------------------------------
E:-------------------------------------------------------------

Verse 
   G
   S      P    S      P   S     S      P    S
G:-------------------------------------------------------------
D:--------5/3---------5/3---5----------5/3----------------------
A:------------------------X------------------------------------
E:-1\3---------1\3--------------1/3---------1/3----5--5--------

Verse 
2 times
   D
   S      P    S      P   S
G:--------7\5---------7\5---5----------------------------------
D:------------------------X------------------------------------
A:-3/5---------3/5---------------------------------------------
E:-------------------------------------------------------------




Chorus 
3 times
   A          G
G:-------------------------------------------------------------
D:------------5-3----------------------------------------------
A:----------------5--------2-----------------------------------
E:-5--5--5--5-------3----3-------------------------------------

   A          G
G:-------------------------------------------------------------
D:------------5-3-----5-3--------------------------------------
A:----------------5-------5---2--------------------------------
E:-5--5--5--5-------3-------3----------------------------------
   
Repeat Verses
Repeat Chorus
Midsection same as verse
Repeat Chorus
Repeat Verse
            

comments powered by Disqus
↑ Back to top | Duran Duran Bass for Notorious. Lyrics for acoustic guitar and electric guitar. Tablatures and chords are parodies/interpretations of the original songs. You may use it for private study, scholarship, research or language learning purposes only