» » »

New Religion Bass tabs (ver.1)

Artists:  A B C D E F G H I J K L M N O P Q R S T U V W X Y Z # 

New Religion Bass tabs (ver.1)

Duran Duran
Rating:
4/5 (2 votes)

Hard to play? Try these video lessons and learn fast.
                Song Title: New Religion
Song Duration: 05:32 min

Instructions:

(     ) - Song time elapsed 

s - Slap

\ - Slide down

h - Hammer on 


Main riff (00:36)
                            
G|----------------------------------|
D|------------5-0-------------5-0---|
A|------55\7------------55\7--------|
E|--0---------------0---------------|

G|----------------------------------|
D|------------5-0-------------5-0---|
A|------55\7------------55\7--------|
E|--0---------------0---------------|

G|----------------------------------|
D|------------5-0-------------5-0---|
A|------55\7------------55\7--------|
E|--0---------------0---------------|


Riff end (00:48)

G|---------------------------------------------------|
D|------------5-5------------------------------------|
A|------55\7--------3-3-33--3-3-33--3-3-33--5-5-6-6--|
E|--0------------------------------------------------|


Main riff (00:54)

G|----------------------------------|
D|------------5-0-------------5-0---|
A|------55\7------------55\7--------|
E|--0---------------0---------------|

G|----------------------------------|
D|------------5-0-------------5-0---|
A|------55\7------------55\7--------|
E|--0---------------0---------------|

G|----------------------------------|
D|------------5-0-------------5-0---|
A|------55\7------------55\7--------|
E|--0---------------0---------------|

                           s  s
G|-------------------------6--7---|
D|------------5-0-----------------|
A|------55\7------------0h4s-5s---|
E|--0---------------0-------------|


Main riff (01:09)

G|----------------------------------|
D|------------5-0-------------5-0---|
A|------55\7------------55\7--------|
E|--0---------------0---------------|

G|--------------------------6--7--|
D|------------5-0-----------------|
A|------55\7------------0h4--5----|
E|--0---------------0-------------|


G|----------------------------------|
D|------------5-0-------------5-0---|
A|------55\7------------55\7--------|
E|--0---------------0---------------|

                           s  s
G|-------------------------6--7---|
D|------------5-0-----------------|
A|------55\7------------0h4s-5s---|
E|--0---------------0-------------|

G|----------------------------------|
D|------------5-0-------------5-0---|
A|------55\7------------55\7--------|
E|--0---------------0---------------|

G|---------------------------------|
D|------------5-0------------------|
A|------55\7------------0-4-4-5-5--|
E|--0---------------0--------------|

G|----------------------------------|
D|------------5-0-------------5-0---|
A|------55\7------------55\7--------|
E|--0---------------0---------------|

G|---------------------------------|
D|------------5-0------------------|
A|------55\7------------0-5-5-0-0--|
E|--0---------------0--------------|


Break (01:40)

G|---------------------------|
D|---------------------------|
A|--5---5-5----3--3----------|
E|------------------0-0-3-3--| 

G|---------------------------------|
D|------------5-0-------------5-5--|
A|------55\7------------55\7-------|
E|--0---------------0--------------|

G|-----------------------------|
D|-----------------------------|
A|--5---5--55----3--3----------|
E|--------------------0-0-3-3--| 


Main riff (01:52)

G|----------------------------------|
D|------------5-0-------------5-0---|
A|------55\7------------55\7--------|
E|--0---------------0---------------|

                           s  s
G|-------------------------6--7---|
D|------------5-0-----------------|
A|------55\7------------0h4s-5s---|
E|--0---------------0-------------|

G|----------------------------------|
D|------------5-0-------------5-0---|
A|------55\7------------55\7--------|
E|--0---------------0---------------|

G|---------------------------------|
D|------------5-0------------------|
A|------55\7------------0-4-4-5-5--|
E|--0---------------0--------------|

G|----------------------------------|
D|------------5-0-------------5-0---|
A|------55\7------------55\7--------|
E|--0---------------0---------------|

                           s  s
G|-------------------------6--7---|
D|------------5-0-----------------|
A|------55\7------------0h4s-5s---|
E|--0---------------0-------------|

G|----------------------------------|
D|------------5-0-------------5-0---|
A|------55\7------------55\7--------|
E|--0---------------0---------------|

G|----------------------------------|
D|------------5-0-------------5-0---|
A|------55\7------------55\7--------|
E|--0---------------0---------------|

G|----------------------------------|
D|------------5-0-------------5-0---|
A|------55\7------------55\7--------|
E|--0---------------0---------------|

G|----------------------------------|
D|------------5-0-------------5-5---|
A|------55\7------------55\7--------|
E|--0---------------0---------------|


Chorus (02:31)

G|----------------------------------------|
D|----------------------------------------|
A|--5--5-5---3--3-3---0--0-0--0---------0-|
E|-----------------------------3--3-3-3---| 

G|----------------------------------------|
D|----------------------------------------|
A|--5--5-5---3--3-3---0--0-0--0-------0-0-|
E|-----------------------------3--3-33----| 


Main riff (02:46)

G|----------------------------------|
D|------------50-------------5-0----|
A|------55\7------------55\7--------|
E|--0---------------0---------------|

                           s  s
G|-------------------------6--7---|
D|------------5-0-----------------|
A|------55\7------------0h4s-5s---|
E|--0---------------0-------------|

G|----------------------------------|
D|------------5-0-------------5-0---|
A|------55\7------------55\7--------|
E|--0---------------0---------------|

G|----------------------------------|
D|------------5-0-------------5-0---|
A|------55\7------------55\7--------|
E|--0---------------0---------------|

G|----------------------------------|
D|------------5-0-------------5-0---|
A|------55\7------------55\7--------|
E|--0---------------0---------------|

G|--------------------------6--7--|
D|------------5-0-----------------|
A|------55\7------------0h4--5----|
E|--0---------------0-------------|

G|----------------------------------|
D|------------5-0-------------5-0---|
A|------55\7------------55\7--------|
E|--0---------------0---------------|

G|----------------------------------|
D|------------5-0-------------5-0---|
A|------55\7------------55\7--------|
E|--0---------------0---------------|

G|----------------------------------|
D|------------5-0-------------5-0---|
A|------55\7------------55\7--------|
E|--0---------------0---------------|

G|----------------------------------|
D|------------5-0-------------5-5---|
A|------55\7------------55\7--------|
E|--0---------------0---------------|


Chorus (03:24)

G|----------------------------------------|
D|----------------------------------------|
A|--5--5-5---3--3-3---0--0-0--0---------0-|
E|-----------------------------3--3-3-3---| 

G|----------------------------------------|
D|----------------------------------------|
A|--5--5-5---3--3-3---0--0-0--0-------0-0-|
E|-----------------------------3--3-33----|


Main riff II (03:39)

G|---------------6---------------6----|
D|------------55--------------55------|
A|------55\7------------55\7----------|
E|--0---------------0-----------------|

G|---------------6--------------------|
D|------------55----------------------|
A|------55\7------------5\\7--3-4-5---|
E|--0---------------0-----------------|

G|---------------6---------------6----|
D|------------55--------------55------|
A|------55\7------------55\7----------|
E|--0---------------0-----------------|

G|---------------6--------------------|
D|------------55----------------------|
A|------55\7------------5\\7--3-4-5---|
E|--0---------------0-----------------|

G|---------------6---------------6----|
D|------------55--------------55------|
A|------55\7------------55\7----------|
E|--0---------------0-----------------|

G|---------------6--------------------|
D|------------55----------------------|
A|------55\7------------5\\7--3-4-5---|
E|--0---------------0-----------------|

G|---------------6---------------6----|
D|------------55--------------55------|
A|------55\7------------55\7----------|
E|--0---------------0-----------------|

G|---------------6---------------6----|
D|------------55--------------55------|
A|------55\7---------------55---------|
E|--0---------------0-----------------|

G|---------------6---------------6----|
D|------------55--------------55------|
A|------55\7------------55\7----------|
E|--0---------------0-----------------|

G|---------------6---------------6----|
D|------------55--------------55------|
A|------55\7------------55\7----------|
E|--0---------------0-----------------|

G|---------------6---------------6----|
D|------------55--------------55------|
A|------55\7------------55\7----------|
E|--0---------------0-----------------|

G|---------------6---------------|
D|------------55-----------------|
A|------55\7----------------4-5--|
E|--0---------------0-0----------|


Main riff (04:24)

G|----------------------------------|
D|------------5-0-------------5-0---|
A|------55\7------------55\7--------|
E|--0---------------0---------------|

G|----------------------------------|
D|------------5-0-------------5-5---|
A|------55\7------------55\7--------|
E|--0---------------0---------------|

G|----------------------------------|
D|------------5-0-------------5-0---|
A|------55\7------------55\7--------|
E|--0---------------0---------------|

G|----------------------------------|
D|------------5-0-------------------|
A|------55\7------------0-4-4-5-5---|
E|--0---------------0---------------|

G|----------------------------------|
D|------------5-0-------------5-0---|
A|------55\7------------55\7--------|
E|--0---------------0---------------|

G|----------------------------------|
D|------------5-0-------------5-0---|
A|------55\7------------55\7--------|
E|--0---------------0---------------|

G|----------------------------------|
D|------------5-0-------------5-0---|
A|------55\7------------55\7--------|
E|--0---------------0---------------|

G|----------------------------------|
D|------------5-0-------------5-5---|
A|------55\7------------55\7--------|
E|--0---------------0---------------|


Chorus (04:54)

G|-------------------------------------------------|
D|-------------------------------------------------|
A|--5--5-5---3--3-3---0-0-00-0-0-00--------------0-|
E|----------------------------------3-3-33-3-3-33--| 

G|-------------------------------------------------|
D|-------------------------------------------------|
A|--5--5-5---3--3-3---0-0-00-0-0-00----------------|
E|----------------------------------3-3-33-3-3-333-| 

G|---------------------------------------------------|
D|---------------------------------------------------|
A|--5--5-5--5-3--3-3--3-0-0-00-0-0-00----------------|
E|------------------------------------3-3-33-3-3-333-| 

G|---------------------------------------------------|
D|---------------------------------------------------|
A|--5--5-5--5-3--3-3--3-0-0-00-0-0-00----------------|
E|------------------------------------3-3-33-3-3-333-| 

G|---------------------------------------------------|
D|---------------------------------------------------|
A|--5--5-5--5-3--3-3--3-0-0-00-0-0-00----------------|
E|------------------------------------3-3-33-3-3-333-| 


End.
            
Hard to play? Try these video lessons and learn fast. | Correct




comments powered by Disqus
↑ Back to top | Tablatures and chords are parodies/interpretations of the original songs. You may use it for private study, scholarship, research or language learning purposes only