» » »

My Own Way Bass tabs (ver.1)

Artists:  A B C D E F G H I J K L M N O P Q R S T U V W X Y Z # 

My Own Way Bass tabs (ver.1)

Duran Duran
Rating:
0/5 (0 votes)

Hard to play? Try these video lessons and learn fast.
                Song Title: My Own Way
Song Duration: 04:52 min


Instructions:

S - Slap
/ - Slide down
p - Pause


Main riff (00:00)
 
    S
G--1/2-------------------------------|
D------------------------------------|
A-------0-0-2-2-3-3-3-3/5------------|
E------------------------------------|
 
    S
G--1/2-------------------------------|
D------------------------------------|
A---------0-0-2-2-3-3-3-3/5----------|
E------------------------------------|

    S                                                           S S
G--1/2----------------------------------------------------------1-2-|
D-------------------------------------------------------------------|
A-------0-0-2-2-3-3-3-3/5-5-3-3-------------5---5---5-3-3-----------|
E-------------------------------2-2-3-3--------------------0-3------|



Break (00:47)

G----------------------------------------|
D----------------------------------------|
A-----------------3-3-0----0-0-----0-0---|
E--0----3-3-0------------------3-3-------|


G----------------------------------------|
D----------------------------------------|
A-----------------3-3-0----0-0-----0-0---|
E--0----3-3-0------------------3-3-------|


G--------------------------------------------------------------------|
D------------------------------------------------------------0-1-----|
A-----------------3-3-0----0-0-----0-0---3--3--3--3--5--5-p----------|
E--0----3-3-0------------------3-3-----------------------------------|


G----------------------------------------|
D----------------------------------------|
A-----------------3-3-0----0-0-----0-0---|
E--0----3-3-0------------------3-3-------|


G----------------------------------------|
D----------------------------------------|
A-----------------3-3-0----0-0-----0-0---|
E--0----3-3-0------------------3-3-------|


G--------------------------------------------------------------|
D--------------------------------------------------------------|
A-----------------3-3-0----0-0-----0-0---3--3--3--3--5--5------|
E--0----3-3-0------------------3-3-----------------------------|


Main riff (01:18)
    
G-------------------------------|
D-------------------------------|
A--0-0-2-2-3-3-3-3/5------------|
E-------------------------------|

    S
G--1/2-------------------------------|
D------------------------------------|
A-------0-0-2-2-3-3-3-3/5------------|
E------------------------------------|

    S                                                           S S
G--1/2----------------------------------------------------------1-2-|
D-------------------------------------------------------------------|
A-------0-0-2-2-3-3-3-3/5-5-3-3-------------5---5---5-3-3-----------|
E-------------------------------2-2-3-3--------------------0-3------|


Break (02:05)

G----------------------------------------|
D----------------------------------------|
A-----------------3-3-0----0-0-----0-0---|
E--0----3-3-0------------------3-3-------|


G----------------------------------------|
D----------------------------------------|
A-----------------3-3-0----0-0-----0-0---|
E--0----3-3-0------------------3-3-------|


G--------------------------------------------------------------------|
D------------------------------------------------------------0-1-----|
A-----------------3-3-0----0-0-----0-0---3--3--3--3--5--5-p----------|
E--0----3-3-0------------------3-3-----------------------------------|


G----------------------------------------|
D----------------------------------------|
A-----------------3-3-0----0-0-----0-0---|
E--0----3-3-0------------------3-3-------|


G----------------------------------------|
D----------------------------------------|
A-----------------3-3-0----0-0-----0-0---|
E--0----3-3-0------------------3-3-------|


G--------------------------------------------------------------------|
D--------------------------------------------------------------------|
A-----------------3-3-0----0-0-----0-0---3--3--3--3--5--5--p--5-5-6--|
E--0----3-3-0------------------3-3-----------------------------------|


Mid section (02:36)
 
G------------------------------4-----------4///9----|
D---------------------------------------------------|
A------------2///5----------------------------------|
E--0----0-------------0----0-------0----0-----------|


Riff 2 (02:44)

G-------------------------------|
D-------------------------------|
A-------------------------------|
E--0-0-2-2-3-3-3-3/5------------|


G-------------------------------|
D--1/2--------------------------|
A-------------------------------|
E-------0-0-2-2-3-3-3-3/5-------|



G--------------------------------------------------5---6---------------------|
D--1/2-----------------------------------------------------------------------|
A-----------------------------------------3--3---3---4-----5--5--5-5-6-6-----|
E-------0-0-2-2-3-3-3-3/5-5-3-3-0-0-3-3--------------------------------------|


Main riff (02:59)

G-------------------------------|
D-------------------------------|
A--0-0-2-2-3-3-3-3/5------------|
E-------------------------------|

    S
G--1/2-------------------------------|
D------------------------------------|
A-------0-0-2-2-3-3-3-3/5------------|
E------------------------------------|
 
    S                                                                     S S
G--1/2--------------------------------------------------------------------4-5---------|
D-------------------------------------------------------------------------------------|
A-------0-0-2-2-3-3-3-3/5-5-3-3------------3-3-3-3-3-3-5-0---5-5-5-5-5-5--------------|
E-------------------------------2-2-3-3-----------------------------------------------|
 

Break (03:15)

G-------------------------------------------|
D-------------------------------------------|
A-----------------3-3-0-0---0-0-------0-0---|
E--0-0---3-3-0-0-----------------3-3--------|

G-------------------------------------------|
D-------------------------------------------|
A-----------------3-3-0-0---0-0-------0-0---|
E--0-0---3-3-0-0-----------------3-3--------|

G------------------------------------------------------------------------------------|
D----------------------------------------------------------------------0-0-1-1-------|
A-----------------3-3-0-0---0-0-------0-0---3-3-3-0--3-3-3-0--5-5-5-0----------------|
E--0-0---3-3-0-0-----------------3-3-------------------------------------------------|



Repeat this break until fade out and end.
            
Hard to play? Try these video lessons and learn fast. | Correct




comments powered by Disqus
↑ Back to top | Tablatures and chords are parodies/interpretations of the original songs. You may use it for private study, scholarship, research or language learning purposes only