» » »

Duran Duran, Is There Something I Should Know Bass tabs (ver.1)

Artists:  A B C D E F G H I J K L M N O P Q R S T U V W X Y Z # 

Is There Something I Should Know Bass tabs (ver.1)

Duran Duran Tabs
 Rating:
4/5 (4 votes)
Is There Something I Should Know lessons Tabs too difficult? Try these video lessons and learn fast
1
                
\ - Slide down
/ Slide up
(P) - Pop
(S) - Slap
(H) - Hammer on


Intro
   D    C    D    C         D    C    D    C
G:--------------------------------------------------------------
D:--------------------------------------------------------------
A:-5--0-3--0-5--0-3-0-3-3---5--0-3--0-5--0-3-0-3-3--------------
E:--------------------------------------------------------------

   D    C    D         G         C    (P) D    C    D    C      
G:-------------------------------------5------------------------
D:--------------------------------------------------------------
A:-5--0-3--0-5--5----------------3-0-3--3-5--0-3--0-5--0-3-0-3-3
E:----------------0012-3--3-3--3--------------------------------


Verse 1
   D    C    D    C         
G:--------------------------------------------------------------
D:--------------------------------------------------------------
A:-5--0-3--0-5--0-3-0-3-3---------------------------------------
E:--------------------------------------------------------------

   D    C    D         G         C    (P) D    C    D    C      
G:-------------------------------------5------------------------
D:--------------------------------------------------------------
A:-5--0-3--0-5--5----------------3-0-3--3-5--0-3--0-5--0-3-0-3-3
E:----------------0012-3--3-3--3--------------------------------


   D    C    D    C         D    C    D    C
G:--------------------------------------------------------------
D:--------------------------------------------------------------
A:-5--0-3--0-5--0-3-0-3-3---5--0-3--0-5--0-3-0-3-3--------------
E:--------------------------------------------------------------

   D    C    D    C        D    C    D         G         
G:--------------------------------------------------------------
D:--------------------------------------------------------------
A:-5--0-3--0-5--0-3-0-3-3--5--0-3--0-5--5-----------------------
E:----------------------------------------0012-3--3-3--3--------
 
   C    (P)   D           (P)G        C         F         C
G:-------5-----------------7------------------------------------
D:----------------------------------------------3---------------
A:-3--0-3---3-5--5-5--5-5-5-----------3---3--3-3----------3-----
E:---------------------------3--3-3-3---------------------------




Chorus
   D          F      C      A          G
G:--------------------------------------------------------------
D:------------03-3-3-----------------------5-----5--------------
A:-5--5--5-5---------3-3--3-------------------------------------
E:--------------------------5--5--5--5-0-3---0-3----------------

   D          F      C      A          G  (P)        G     C  C#
G:--------------------------------------------------------------
D:------------03-3-3-----------------------5--------------------
A:-5--5--5-5---------03-3-3--------------------------------33-44
E:--------------------------5--5--5--5-0-3---0-3-3---3--3-3-----

Verse 2

   D    C    D    C        D    C    D  S H P  S H P
G:------------------------------------------5------7------------
D:--------------------------------------3-5----5-7--------------
A:-5--0-3--0-5--0-3-0-3-3--5--0-3--0-5--------------------------
E:--------------------------------------------------------------


   D    C    D    C         
G:--------------------------------------------------------------
D:--------------------------------------------------------------
A:-5--0-3--0-5--0-3-0-3-3---------------------------------------
E:--------------------------------------------------------------

   D    C    D         G         C    (P) D    C    D (S HP S HP)       
G:-------------------------------------5------------------5----7
D:-----------------------------------------------------3-5--5-7-
A:-5--0-3--0-5--5----------------3-0-3--3-5--0-3--0-5-----------
E:----------------0012-3--3-3--3--------------------------------


   D    C    D    C         D    C    D    C
G:--------------------------------------------------------------
D:--------------------------------------------------------------
A:-5--0-3--0-5--0-3-0-3-3---5--0-3--0-5--0-3-0-3-3--------------
E:--------------------------------------------------------------

   D    C    D    C        D    C    D         G         
G:--------------------------------------------------------------
D:--------------------------------------------------------------
A:-5--0-3--0-5--0-3-0-3-3--5--0-3--0-5--5-----------------------
E:----------------------------------------0012-3--3-3--3--------
 
   C    (P)   D           (P)G        C         F         C
G:-------5-----------------7------------------------------------
D:----------------------------------------------3---------------
A:-3--0-3---3-5--5-5--5-5-5-----------3---3--3-3----------3-----
E:---------------------------3--3-3-3---------------------------


Chorus
   D          F      C      A          G  (P)
G:--------------------------------------------------------------
D:------------03-3-3-----------------------5--------------------
A:-5--5--5-5---------3-3--3-------------------------------------
E:--------------------------5--5--5--5-0-3---0-3-3--------------

   D          F      C      A          G  (P)        G     C  C#
G:--------------------------------------------------------------
D:------------03-3-3-----------------------5--------------------
A:-5--5--5-5---------03-3-3--------------------------------33-44
E:--------------------------5--5--5--5-0-3---0-3-3---3--3-3-----

   D    C    D    C         
G:--------------------------------------------------------------
D:--------------------------------------------------------------
A:-5--0-3--0-5--0-3---------------------------------------------
E:--------------------------------------------------------------

Mid Section
   B     C     D    E    B     C     D    E   B     C     D    C
G:--------------------------------------------------------------
D:--------------------------------------------------------------
A:-2-----3-----5----7----2-----3-----5----7---2-----3-----5----3
E:------------------0---------------------0---------------------


Outro (4 times)
     D               G(P) (P) C(P)C#(P)
G:------------------------------5---6---------------------------
D:---------------------5---5------------------------------------
A:-\-5-5-5-5-5-5---5----------3---4-----------------------------
E:-------------------3---3--------------------------------------

   (3 times)
     D               G        C   C#
G:------------------------------5---6---------------------------
D:---------------------5---5------------------------------------
A:---5-5-3---5-5-3------------3---4-----------------------------
E:---------5-------5-3---3--------------------------------------

   (Outro fill)
     D               G 
G:--------------------------------------------------------------
D:-------------------5-5--7-7--8-8-7-7--------------------------
A:---5-5-3---5-5-3----------------------------------------------
E:---------5-------5--------------------------------------------
            
Submit corrections

comments powered by Disqus
↑ Back to top | Duran Duran Bass for Is There Something I Should Know. Lyrics for acoustic guitar and electric guitar. 1 Tablatures and chords are parodies/interpretations of the original songs. You may use it for private study, scholarship, research or language learning purposes only