>
 >
(I'm Looking For) Cracks In The Pavement

(I'm Looking For) Cracks In The Pavement Bass Tabs

Duran Duran - (I'm Looking For) Cracks In The Pavement chords, tabs, tablatures, lyrics

Guitar lessons | Add/correct | Request | Top 50 tabs Artists:  A B C D E F G H I J K L M N O P Q R S T U V W X Y Z 0-9

(I'm Looking For) Cracks In The Pavement Bass Tabs – Duran Duran

CD, Sheet music, Poster

Do you like (I'm Looking For) Cracks In The Pavement? Share with your friends now
Bass TabsChordsTabs
Cracks in the Pavement - Bass Tab - Duran Duran


  Intro - Verse I (x3)

G|  ---------------|----------------|----------------|----------------|
D|  ---------------|----------------|----------------|----------------|
A|  -------4-6---3-|--------------4-|----x(x4)-6---3-|--------------4-|
E| 2---------------|------4---4-----|2---------------|------4---4-----|

M| 1 & 2 & 3 & 4 & |1 & 2 & 3 & 4 & |1 & 2 & 3 & 4 & |1 & 2 & 3 & 4 & |

G|  ---------------|----------------|
D|  -------------6-|--------------4-|
A| 6-----6---6-----|4-----4---4-----|
E|  ---------------|----------------|
  
    (00:40)                     

M| 1 & 2 & 3 & 4 & |1 & 2 & 3 & 4 & |

G|  ---------------|----------------|
D|  ---------------|----------------|
A| ----x(x4)-6---4-|--4-------------|
E| 2---------------|------0-2-2-3-3-|

M| 1 & 2 & 3 & 4 & |1 & 2 & 3 & 4 & |

     Chorus (00:44)

G|  ---------------|----------------|----------------|----------------|
D|  ---------------|----------------|--------4---3---|----------------|
A|  -------2-----2-|--------2---1---|4-----4---------|4-----4---------|
E| 4-----4---------|2-----2---------|----------------|--------2---3---|

M| 1 & 2 & 3 & 4 & |1 & 2 & 3 & 4 & |1 & 2 & 3 & 4 & |1 & 2 & 3 & 4 & |

G|  ---------------|----------------|----------------|----------------|
D|  ---------------|----------------|--------4---3---|----------------|
A|  -------2-----2-|--------2---1---|4-----4---------|4-----4---------|
E| 4-----4---------|2-----2---------|----------------|--------0-0-1-1-|


    (01:01) x3

G|  ---------------|----------------|----------------|----------------|
D|  ---------------|----------------|----------------|----------------|
A|  -------4-6---3-|--3-----------4-|----x(x4)-6---3-|--------------4-|
E| 2---------------|------4---4-----|2---------------|------4---4-----|

M| 1 & 2 & 3 & 4 & |1 & 2 & 3 & 4 & |1 & 2 & 3 & 4 & |1 & 2 & 3 & 4 & |

G|  ---------------|----------------|
D|  -------------6-|--------------4-|
A| 6-----6---6-----|4-----4---4-----|
E|  ---------------|----------------|

M| 1 & 2 & 3 & 4 & |1 & 2 & 3 & 4 & |1 & 2 & 3 & 4 & |1 & 2 & 3 & 4 & |

     (01:39)

G|  ---------------|----------------|
D|  ---------------|----------4---5-|
A| ----x(x4)-6---4-|--4-------------|
E| 2---------------|-----46-2---3---|

M| 1 & 2 & 3 & 4 & |1 & 2 & 3 & 4 & |


  Chorus (01:43)

G|  ---------------|----------------|----------------|----------------|
D|  ---------------|----------------|--------4---3---|----------------|
A|  -------2---1---|--------2---1---|4-----4---------|4-----4---------|
E| 4-----4---------|2-----2---------|----------------|--------2---3---|

M| 1 & 2 & 3 & 4 & |1 & 2 & 3 & 4 & |1 & 2 & 3 & 4 & |1 & 2 & 3 & 4 & |

G|  ---------------|----------------|----------------|----------------|
D|  ---------------|----------------|--------4---3---|----------------|
A|  -------2---1---|--------2---1---|4-----4---------|4-----4---------|
E| 4-----4---------|2-----2---------|----------------|--------2---3---|

M| 1 & 2 & 3 & 4 & |1 & 2 & 3 & 4 & |1 & 2 & 3 & 4 & |1 & 2 & 3 & 4 & |

G|  ---------------|----------------|----------------|----------------|
D|  ---------------|----------------|--------4---3---|----------------|
A|  -------2---1---|--------2---1---|4-----4---------|4-----4---------|
E| 4-----4---------|2-----2---------|----------------|--------2---3---|

M| 1 & 2 & 3 & 4 & |1 & 2 & 3 & 4 & |1 & 2 & 3 & 4 & |1 & 2 & 3 & 4 & |


G|  ---------------|----------------|----------------|----------------|
D|  ---------------|----------------|--------4---3---|----------------|
A|  -------2---1---|--------2---1---|4-----4---------|4-----4-4-----24|
E| 4-----4---------|2-----2---------|----------------|----------------|

M| 1 & 2 & 3 & 4 & |1 & 2 & 3 & 4 & |1 & 2 & 3 & 4 & |1 & 2 & 3 & 4 & |


   (02:17)

G|  ---------------|----------------|----------------|--------------2-|
D|  ---------------|----------------|----------------|--------4-4-2---|
A|  ---------------|--------4-4-6-6-|2-2---2-2-2---2-|2-2---2---------|
E| 2-2---2-2-2---2-|2-2---2---------|----------------|----------------|

M| 1 & 2 & 3 & 4 & |1 & 2 & 3 & 4 & |1 & 2 & 3 & 4 & |1 & 2 & 3 & 4 & |

G|  ---------------|----------------|----------------|----------------|
D|  ---------------|----------------|----------------|----------------|
A|  ---------------|--------4-4-6-6-|2-2---2-2-2---2-|2-2---2-2-2-1-2-|
E| 2-2---2-2-2---2-|2-2---2---------|----------------|----------------|

M| 1 & 2 & 3 & 4 & |1 & 2 & 3 & 4 & |1 & 2 & 3 & 4 & |1 & 2 & 3 & 4 & |

   (02:34)

G|  ---------------|----------------|----------------|----------------|
D|  ---------------|----------------|----------------|----------------|
A| 4-4---x-4-4---4-|2-2---x-2-------|----------------|2-2---2-2-2-0---|
E|  ---------------|----------0-2-0-|2-2---2-2-2---2-|--------------0-|

M| 1 & 2 & 3 & 4 & |1 & 2 & 3 & 4 & |1 & 2 & 3 & 4 & |1 & 2 & 3 & 4 & |

    (02:42)
       p     p          p     p
G|  ---------------|----------------|----------------|----------------|
D|  ---4-----4-----|----7-----7-----|----------------|----------------|
A|  -------------0-|5-------------0-|4-4-4-4-4-4-4-4-|4-4-4-0-------4-|
E| 2---------------|----------------|----------------|--------2-5-4---|

M| 1 & 2 & 3 & 4 & |1 & 2 & 3 & 4 & |1 & 2 & 3 & 4 & |1 & 2 & 3 & 4 & |


   Chorus (01:43)

G|  ---------------|----------------|----------------|----------------|
D|  ---------------|----------------|--------4---3---|----------------|
A|  -------2---1---|--------2---1---|4-----4---------|4-----4---------|
E| 4-----4---------|2-----2---------|----------------|--------2---3---|

M| 1 & 2 & 3 & 4 & |1 & 2 & 3 & 4 & |1 & 2 & 3 & 4 & |1 & 2 & 3 & 4 & |

G|  ---------------|----------------|----------------|----------------|
D|  ---------------|----------------|--------4---3---|----------------|
A|  -------2---1---|--------2---1---|4-----4---------|4-----4---------|
E| 4-----4---------|2-----2---------|----------------|--------2---3---|

M| 1 & 2 & 3 & 4 & |1 & 2 & 3 & 4 & |1 & 2 & 3 & 4 & |1 & 2 & 3 & 4 & |

                                     (03:12)                
    
G|  ---------------|----------------|----------------|----------------|
D|  ---------------|----------------|----------------|----------------|
A|  -------2---1---|--------2---1---|4-----4-4-----4-|--4---4---4---2-|
E| 4-----4---------|2-----2---------|----------------|----------------|

M| 1 & 2 & 3 & 4 & |1 & 2 & 3 & 4 & |1 & 2 & 3 & 4 & |1 & 2 & 3 & 4 & |

G|  ---------------|----------------|----------------|--6-------------|
D|  ---------------|----------------|--------4---3---|68----------16/-|
A|  -------2---1---|--------2---1---|4-----4---------|----------------|
E| 4-----4---------|2-----2---------|----------------|----------------|

M| 1 & 2 & 3 & 4 & |1 & 2 & 3 & 4 & |1 & 2 & 3 & 4 & |1 & 2 & 3 & 4 & |

G|  ---------------|----------------|----------------|----------------|
D|  ---------------|----------------|--------4---3---|----------------|
A|  -------2---1---|--------2---1---|4-4---4---------|4-4---4---------|
E| 4-----4---------|2-2---2---------|----------------|--------2-2-3-3-|

M| 1 & 2 & 3 & 4 & |1 & 2 & 3 & 4 & |1 & 2 & 3 & 4 & |1 & 2 & 3 & 4 & |





Comments


Popular Duran Duran tabs & chords
Come Undone Bass Tabs
My Own Way Bass Tabs
Rio 3 Bass Tabs
The Chauffeur Bass Tabs
First Impression Chords
Liberty Chords
Take It Easy Chords
Nice Tabs
Playing With Uranium Ukulele
Too Bad Youre So Beautiful Ukulele


Song lyrics



↑ Back to top | Tablatures and chords are parodies/interpretations of the original songs. You may use it for private study, scholarship, research or language learning purposes only
© 2014 AZChords.com Contact us | Privacy policy | DMCA | Add/correct tabs | Request tabs | Top 50 tabs