» » »

Duran Duran, I Don't Want Your Love Bass tabs (ver.2)

Artists:  A B C D E F G H I J K L M N O P Q R S T U V W X Y Z # 

I Don't Want Your Love Bass tabs (ver.2)

Duran Duran Tabs
 Rating:
4/5 (4 votes)
I Don't Want Your Love lessons Tabs too difficult? Try these video lessons and learn fast
                
(00:00) x2 (01:02) x2 (02:04) x4
    D
G ------------------------------------------------|
D ------------------------------------------------|
A --35--303----2x2--3x3----35--303----2x2--3------|
E ------------------------------------------------| 

(00:10) x4 (01:12) x4 (02:22) x4
     D	        D	     D	        D
G -------------------------------------------------------|
D -------------------------------------------------------|
A ---55-5-------5-55---------5-55-------5-55-------------|
E -------------------------------------------------------| 

(00:44) x2 (01:28)x4 (02:39)X8
    D	                 C		          G            
G ---7-5-----------------5-3----------------------------------|
D -------7-------------------5----------------5-3-------------|
A -5-------5--55-5-----3-------3--33-3------------5-----------|
E ------------------------------------------3--------3---33-3-|

G---------------------------|
D------5-3------------------|
A-----------5---------------|
E---3----------3---33-3-33--|
            
Submit corrections

comments powered by Disqus
↑ Back to top | Duran Duran Bass for I Don't Want Your Love. Lyrics for acoustic guitar and electric guitar. Tablatures and chords are parodies/interpretations of the original songs. You may use it for private study, scholarship, research or language learning purposes only