» » »

Finest Hour Bass tabs (ver.1)

Artists:  A B C D E F G H I J K L M N O P Q R S T U V W X Y Z # 

Finest Hour Bass tabs (ver.1)

Duran Duran
Rating:
0/5 (0 votes)
Tabs too difficult? Try these video lessons and learn fast.
                Band:Duran Duran
Album:Astronaut
Tuning:EADG


Intro:

G|--------------------------------------------------------------------------------|
D|----------------4-----6---------4-----6---------4-----6---------7-------4-----2-|
A|------------------------4-----7---------4-----7---------4-----7-------7---------|
E|--------------------------------------------------------------------------------|


Verse 1:

G|----------------------------------------------------------------|
D|4-----6---------4-----6---------4-----6---------7-------4-------|
A|--------4-----7---------4-----7---------4-----7-------7---------|
E|----------------------------------------------------------------|


1st Chorus:

G|----------------------------------------------------------------------------------------|
D|4-----6---------4----46-7---7-6-4-----6-------2-4-----6-7------67--67-9-4---------------|
A|--------4-----7-------------------------4------4----------------------------------------|
E|----------------------------------------------------------------------------------------|


Verse 2:

G|----------------------------------------------------------------|
D|4-----2---------4-----2---------4-----6---------7-------4-------|
A|--------4---------------4---------------4-----7-------7---------|
E|----------------------------------------------------------------|


2nd Chorus:

G|------------------------------------------------------------------------|
D|4-----6-------2-4----46-7---7-9-4-----6-------2-4-----6-7---7---7-7-7-72|
A|--------4------4------------------------4------4------------------------|
E|------------------------------------------------------------------------|


Middle:

G|----------------------------------------------------------------|
D|4----4--4----4--7----7--7----7--4-------------------------------|
A|----------------------------------------------------------------|
E|----------------------------------------------------------------|

G|------------------------------------------------|
D|4-------4----4------------------2---------------|
A|----------------4-------4---4-4-----------------|
E|------------------------------------------------|


3rd Chorus:

G|----------------------------------------------------------------|
D|4-----6---------4-----6-7---7-6-4-----6-------2-4-----6-7--67-77|
A|--------4-----7-------------------------4------4----------------|
E|----------------------------------------------------------------|


Repeat Chorus
            
Tabs too difficult? Try these video lessons and learn fast.


comments powered by Disqus
↑ Back to top | Tablatures and chords are parodies/interpretations of the original songs. You may use it for private study, scholarship, research or language learning purposes only