» » »

Come Undone Bass tabs (ver.1)

Artists:  A B C D E F G H I J K L M N O P Q R S T U V W X Y Z # 

Come Undone Bass tabs (ver.1)

Duran Duran
Rating:
0/5 (0 votes)

Hard to play? Try these video lessons and learn fast.
                Song Title:Come Undone
----------------------

Tuning:DADG (Drop D)


Intro&Verse&Chorus*

G|-----------------------------------------------------------
D|-----------------1-------1---------------------------------
A|-3-33-1-33-335-11-1-11-11----------------------------------
D|---------------------------3-33-1-33-333-5-55-3-55557------

Interlude(Before Bridge)

G|-----------------------------------------------------------
D|-----------------1-------1---------------------------------
A|-3-33-1-33-335-11-1-11-11----------------------------------
D|---------------------------3-33-1-33-333-5--7--8--10-------

Bridge

G|-----------------------------------------------------------------
D|-----------------------------------------------------------------
A|-3-33-33-3-33-33-1-11-11-1-11-11-------------------------1-11-11-
D|---------------------------------3-33-33-3-33-33-5-55-55---------

*Note:11. bar isn't used in this song.(11=at 1. bar play the note twice)


Please send me any corrections or comment.
            
Hard to play? Try these video lessons and learn fast. | Correct




comments powered by Disqus
↑ Back to top | Tablatures and chords are parodies/interpretations of the original songs. You may use it for private study, scholarship, research or language learning purposes only